Sheets Tab por Damien Jurado

4 Acordes utilizados en la canción: Dm, F, C, G

Añadir esta tab a su SongBook
Tablature / ChordsFont size: A- A A+

¿ No sabe cómo leer una tablatura o un acorde ?

curso de ukulele

Intro:

A|-----1---1----------------0--0~1-------1-------1--1------------------1---1----1----1----1
E|--- 3----3---1--1----1---1-1------ 3---3-3-1---3--3---1--1---1---1-- 3-3-3--3-3--3-3--3-3-
C|-2-2---2--2-2-2--0~2-0~2---2---2-2-2-2-2---2-2-2--2-2-2-0~2-0~2-0-2-----2----2----2----
G|------------------------------------------------------------------------------------------

A|----1---1---|
E|-3-3-3-3----|
C|------------|
G|------------|


Chords:
Dm Dm F F C C G G

 

Comentarios (0)
Ningún comentario :(
¿Necesitas ayuda, un consejo para compartir o simplemente quieres hablar sobre esta canción? Comience la discusión

Debes iniciar sesión para unirte a la discusión
o Registrarse

 

Acerca de esta canción

No hay información por esta canción.