I Felt Free Tab por Circa Survive

3 Acordes utilizados en la canción: G, Em, A

Añadir esta tab a su SongBook
Tablature / ChordsFont size: A- A A+

¿ No sabe cómo leer una tablatura o un acorde ?

curso de ukulele

Intro
--1-----1-----0-----1-----5-----0
--3-----3-----1-----3-----3-----1
--3-----2-----0-----3-----2-----0
--0-----0-----2-----0-----0-----2

G G
Nothing new to say
Nothing to report 'cause the
Em Em A A G G
future happened yesterday

G G
If I could tell the truth
I could make you stay
Em Em A A G G
But forever seems so far away

1--------------------1------------0--------------------1-----------------5----
3--------------------3------------1--------------------3-----------------3----
3--------------------2------------0--------------------3-----------------2----
0--------------------0------------2--------------------0-----------------0----
I fell apart in your arms For the last time And I felt free to do what I want

---------------0----------------
---------------1-----------------
---------------0-------------------
---------------2-------------------
Because of the things you told me,

1-------------------1------------0
3-------------------3------------1
3-------------------2------------0
0-------------------0------------2
Because of the things you told me, you told me

G G
I felt free

G G
You could be the end of me
Too many shades of gray
Em Em A A G G
It's just another pointless game that we play

G G
I couldn't tell the truth
I'll never make you stay
Em Em A A G G
Because tomorrow always happens yesterday


1--------------------1------------0--------------------1-----------------5----
3--------------------3------------1--------------------3-----------------3----
3--------------------2------------0--------------------3-----------------2----
0--------------------0------------2--------------------0-----------------0----
I fell apart in your arms For the last time And I felt free to do what I want

---------------0----------------
---------------1-----------------
---------------0-------------------
---------------2-------------------
Because of the things you told me,
1-------------------1------------0
3-------------------3------------1
3-------------------2------------0
0-------------------0------------2
Because of the things you told me, you told me

G G
I felt free

[Bridge]
1-----2-----1-----2
3-----3-----3-----3
3-----4-----3-----4
0-----0-----0-----0

-------1-------------------------------0
-------3-------------------------------1
-------3-------------------------------0
-------0-------------------------------2
I will learn to live again for now I'm breaking
-------1-------------------------------0
-------3-------------------------------1
-------3-------------------------------0
-------0-------------------------------2
All the things I couldn't mend without escaping
-------1-------------------------------0
-------3-------------------------------1
-------3-------------------------------0
-------0-------------------------------2
I will learn to love again
-------0-------------------------------0
-------1-------------------------------1
-------0-------------------------------0
-------2-------------------------------2
I will learn to love
I will learn

1--------------------1------------0--------------------1-----------------5----
3--------------------3------------1--------------------3-----------------3----
3--------------------2------------0--------------------3-----------------2----
0--------------------0------------2--------------------0-----------------0----
I fell apart in your arms For the last time And I felt free to do what I want

---------------0----------------
---------------1-----------------
---------------0-------------------
---------------2-------------------
Because of the things you told me,


-------1-----1-----0-----1-----5----
-------3-----3-----1-----3-----3----
-------3-----2-----0-----3-----2----
-------0-----0-----2-----0-----0----
I felt free---------------------------------


-------1-----1-----0-----1-----5----
-------3-----3-----1-----3-----3----
-------3-----2-----0-----3-----2----
-------0-----0-----2-----0-----0----
I felt free---------------------------------

G G
I felt free

 

Comentarios (0)
Ningún comentario :(
¿Necesitas ayuda, un consejo para compartir o simplemente quieres hablar sobre esta canción? Comience la discusión

Debes iniciar sesión para unirte a la discusión
o Registrarse

 

Acerca de esta canción

No hay información por esta canción.