Redbone (Intro) Tab por Childish Gambino

tablatura Ukulele sin acordes.

Añadir esta tab a su SongBook
Tablature / ChordsFont size: A- A A+

¿ No sabe cómo leer una tablatura o un acorde ?

curso de ukulele

# this is an octave higher because the original would require a lower tuned ukulele

A|--12/13--11--9--8-----------------------|
E|-------------------9------11------------|
C|----------------------10----------------|
G|----------------------------------------|



A|---------9--16--13--8--9--11--9~--------|
E|--9--11---------------------------------|
C|----------------------------------------|
G|----------------------------------------|




A|--12/13--11--9--8-----------------------|
E|-------------------9------11------------|
C|----------------------10----------------|
G|----------------------------------------|



A|---------9--16--13--11--9---------------|
E|--9--11--------------------11-----------|
C|----------------------------------------|
G|----------------------------------------|

 

Comentarios (0)
Ningún comentario :(
¿Necesitas ayuda, un consejo para compartir o simplemente quieres hablar sobre esta canción? Comience la discusión

Debes iniciar sesión para unirte a la discusión
o Registrarse

 

Acerca de esta canción

No hay información por esta canción.