Redbone (Riff) Tab por Childish Gambino

tablatura Ukulele sin acordes.

Añadir esta tab a su SongBook
Tablature / ChordsFont size: A- A A+

¿ No sabe cómo leer una tablatura o un acorde ?

curso de ukulele

A|--13-11-9-8-----6---------9-16-13-11-9------|
E|------------9-6------9-11--------------11---|
C|--------------------------------------------|
G|--------------------------------------------|

A|--13-11-9-8-----6---------9-16-13-8-9-11-9--|
E|------------9-6------9-11-------------------|
C|--------------------------------------------|
G|--------------------------------------------|

By Gianna Arystan

 

Comentarios (1)
Debes iniciar sesión para unirte a la discusión
o Registrarse

 

majuzinha avatar
flag for BR(ISO2) (Belém )
would you have tab for a soprano?
02 Jul 2018
Acerca de esta canción

No hay información por esta canción.