Abrazame (Intro) Tab por Camila

tablatura Ukulele sin acordes.

ImprimirAñadir esta tab a su SongBook
Tablature / ChordsFont size: A- A A+

¿ No sabe cómo leer una tablatura o un acorde ?

curso de ukulele

s                                    
a---------6------------6--------------------------------5--------
E----------6-4-----------6--3-4----3---3---1---1----------4---3--
d-------2--------------------------------------------------------
g---5---------------5---------------------------------4----------
s s
a-----5---6----------------6----6---3---5---6----------------
E-----------2-3---1---1-----------------------5-6---4---3--4-
d------------------------------------------------------------
g---5--------------------------------------------------------
s
a---------------------------------------------------
E---------------------3---------------3---3-4------3
d-----------------5---------3---5--------------5----
g---5---7---8-------------4-------------------------

 

Comentarios (0)
Ningún comentario :(
¿Necesitas ayuda, un consejo para compartir o simplemente quieres hablar sobre esta canción? Comience la discusión

Debes iniciar sesión para unirte a la discusión
o Registrarse

 

Acerca de esta canción

No hay información por esta canción.