Shuffle Tab por Bombay Bicycle Club

tablatura Ukulele sin acordes.

Añadir esta tab a su SongBook
Tablature / ChordsFont size: A- A A+

¿ No sabe cómo leer una tablatura o un acorde ?

curso de ukulele

A|-------5--12--10--9--5--0--|
E|---3-----------------------|
C|---------------------------|
G|---------------------------|
A|-------5--12--10--9--5--0-----5--12--10--9--5--0--|
E|---3-----------------------3----------------------|
C|--------------------------------------------------|
G|--------------------------------------------------|
S S
A|----------------------------------------------------------------|
E|---3------3--------------3------3------3---------------3--------|
C|-------6----------------------------6---------------------------|
G|--------------7---5---4------4-------------7---5---4-------4----|
A|-------5--12--10--9--5--0-----5--12--10--9--5--0--|
E|---3-----------------------3----------------------|
C|--------------------------------------------------|xG|--------------------------------------------------|

A|------------------------------------------------------------|
E|---3--------5---3----------------3-------5---3--------------|
C|--------------------6-------6--------------------6----------|
G|--------7---------------7------------7----------------7-----|

A|----------------------------------------------|
E|------3-----------3--------3-----------3------|
C|---0-----2-----------2--0-----2---------------|
G|------------5--4-----------------5--4-----4---|
A|-------5--12--10--9--5--0--|
E|---3-----------------------|
C|---------------------------|
G|---------------------------|
A|-------5--12--10--9--5--0-----5--12--10--9--5--0--|
E|---3-----------------------3----------------------|
C|--------------------------------------------------|
G|--------------------------------------------------|
S S
A|----------------------------------------------------------------|
E|---3------3--------------3------3------3---------------3--------|
C|-------6----------------------------6---------------------------|
G|--------------7---5---4------4-------------7---5---4-------4----|
A|-------5--12--10--9--5--0-----5--12--10--9--5--0--|
E|---3-----------------------3----------------------|
C|--------------------------------------------------|xG|--------------------------------------------------|

A|-----------------------------------------------------------|
E|---3--------5---3----------------3-------5---3-------------|
C|--------------------6-------6--------------------6---------|
G|--------7---------------7------------7----------------7----|

A|----------------------------------------------|
E|------3-----------3--------3-----------3------|
C|---0-----2-----------2--0-----2---------------|
G|------------5--4-----------------5--4-----4---|

A|----------------------------------------------|
E|------3-----------3--------3-----------3------|
C|---0-----2-----------2--0-----2---------------|
G|------------5--4-----------------5--4-----4---|

A|------------------------------------------|
E|---3----3----7----5----7----3----33---5---|
C|---2----0----4----2----4----0----2----2---|
G|---4----5----9----7----9----5----4----7---|
P P P P
A|------------------------------------------|
E|-----5-5-5----5-5-5----5-5-5----5-5-5-----|
C|------------------------------------------|
G|---4--------4--------4--------4-----------|
A|-------5--12--10--9--5--0--|
E|---3-----------------------|
C|---------------------------|
G|---------------------------|
H P
A|-------------------------------|
E|---3-5------5-3--3--5----------|
C|------------------------2--4---|
G|--------4----------------------|

A|----------------------------------------------|
E|------3-----------3--------3-----------3------|
C|---0-----2-----------2--0-----2---------------|
G|------------5--4-----------------5--4-----4---|

A|---------------------------------------------|
E|------3-----------3--------3-----------3-----|
C|---0-----2-----------2--0-----2--------------|
G|------------5--4-----------------5--4-----4--|

 

Comentarios (0)
Ningún comentario :(
¿Necesitas ayuda, un consejo para compartir o simplemente quieres hablar sobre esta canción? Comience la discusión

Debes iniciar sesión para unirte a la discusión
o Registrarse

 

Acerca de esta canción

No hay información por esta canción.