Come Out And Play (Intro) Tab por Billie Eilish

tablatura Ukulele sin acordes.

ImprimirAñadir esta tab a su SongBook
Tablature / ChordsFont size: A- A A+

¿ No sabe cómo leer una tablatura o un acorde ?

curso de ukulele

A|------------3----------3----2--------------|
E|------0------------0----------------0------|
C|--0------------0---------------------------|
G|--------0-----------------------0------0---|

A|------------3----------3----2------------|
E|------0------------0----------------------|
C|--0------------0--------------------------|
G|--------0---------------------------------|

A|-------------3-----------3----2----------|
E|------1-------------1---------------------|
C|--0-------------0-------------------------|
G|---------2-------------------------------|

A|-------------3-----------3----2----------|
E|------1-------------1---------------------|
C|--0-------------0-------------------------|
G|---------2-------------------------------|

 

Comentarios (3)
Debes iniciar sesión para unirte a la discusión
o Registrarse

 

creativenameeee avatar
um... what?
10 Nov 2019
amyandrews avatar
um
18 Jan 2019
Jasminem8 avatar
flag for CA(ISO2) (calgary)
um......................
16 Jan 2019
Acerca de esta canción

No hay información por esta canción.