Ride Home (Intro) Tab por BenandBen

tablatura Ukulele sin acordes.

ImprimirAñadir esta tab a su SongBook
Tablature / ChordsFont size: A- A A+

¿ No sabe cómo leer una tablatura o un acorde ?

curso de ukulele

SOFT PART:

A|----------------------------------------------------|
E|------4-5--4----4-2-4---4---------------------5-----|
C|--------------------------4----2-4-6--4-2-----------|
G|--4-6-----------------4-------------------6-4---4---|

BEAT COMES IN:

A|--2-2-7-2-2-2---2-2-2-2-2-2-2-2---2-2---2-2-2-2-2-2-2-----2-2-2---2-2-2----|
E|--------------2-----------------2-----4-------------------------2-------4--|
C|---------------------------------------------------------------------------|
G|------------------------------------------------------4-6------------------|
H H T T T
A|----------------------------------------------------------|
E|-----------5--2-5--4--------------------------------------|
C|---------------------4-2--4-------------------------------|
G|--4-4-6-4------------------------------------4------------|


REPEAT 5X:

H H H P P P
A|----------------------------------------------------------|
E|---------5--2-5--4--------2------------------5------------|
C|-------------------4-2-4----4-2----2---2-----------2------|
G|-4-4-6-4------------------------6----6---6-4---4-6---6-4--|

************************************

| h Hammer-on
| p Pull-off
| t Tremolo


************************************

 

Comentarios (2)
Debes iniciar sesión para unirte a la discusión
o Registrarse

 

mariko_0101 avatar
flag for PH(ISO2) (Manila)
pano
19 Aug 2018
Kimoooi avatar
flag for PH(ISO2) (General Santos City)
Hooow
21 Jul 2018
Acerca de esta canción

No hay información por esta canción.