The Fear Tab por Ben Howard

tablatura Ukulele sin acordes.

Añadir esta tab a su SongBook
Tablature / ChordsFont size: A- A A+

¿ No sabe cómo leer una tablatura o un acorde ?

curso de ukulele

P          P               P               P                    
A|-2---2---2-----2--2--2-----0----0----0------0---0----0--------------------|
c|--------------------------------------------------------------------------|
C|--------------------------------------------------------------------------|
G|--4-2-4-2--2-0--4--4--2-0---4-2--4-2--2-0---4-2--4-2--2-0-----------| X 3-|
A|-2---2----2-----0-----0----0------2----2----2-----0----0--------0h2-5-7-7-2h0--------|
C|--------------------------------------------------------------0h2--------------------|
C|----------------------------------------------------------------------- --2----------|
G|--4-2-4-2---2p0--4-2---4-2--2p0----4-2--4-2--2p0---4-2--4-2--------------------------|

A|----5-------2-------------2------------------------------------------------------|
c|----------0-0-------------0--5-----4-2-4-2----0----0---------0-------------------|
C|--4-4--22-2-2-2-42-22-22-22-22--------------6----6---4-2----X--------------------|
G|--------- 7--------------------------4---4----2----2---0-------------------------|

A|----5-------2-------------2-----------------------------------------5-----------|
c|----------0-0-------------0--5-----4-2-2-2-2--0-0-0-0---------------------------|
C|--4-4--22-2-2-2-42-22-22-22-22-------8-8-8--6-6-6-6--4-2424242------4-----------|
G|--------- 7--------------------------4-4-4-4--2-2-2-2--0-0-0-0------0-----------|

A|---------------2--4-4-6---6-4-2-----------------2-4-4-6---6-4-2----x-----------|
c|---4-4-4-2-4-2----------2-----------4-4-4-2-4-2---------2----------x-----------|
C|-------------------------------------------------------------------x-----------|
G|-------------------------------------------------------------------x-----------|

A|---6--6--6--4--6--4--0--2-2---4----2-0-----6--6--6--4--6--4--0-2-2---4----2-0-x--------------|
c|-------------------------------------------------------------------x-----------|
C|---6-6-6-4-6-4--------1-4-1---------6-6-6-4-6-4-------1-4-1--------x-----------|
G|---13-13-13-11-13-11-4--6-6-8-11-8-6-4-----13-13-13-11-13-11-4-6-6-8-11-8-6-4----x-----------|

A|-------------0-2-2-------2-0------------------0-2-2-------2-0- 0-2-----------|
c|-2---------------------------------------------------------------0-----------|
C|-4-6-6-4-6-4-------1-4-1----------6-6-6-4-6-4-------1-4-1--------2-----------|
G|-----------------------------------------------------------------0-----------|
A|-99999999-1212121212121212--12555444555444--------------------------------------------|
C|-44444444-7-7-7-7-7-7-7-7-------------------------------------------------------------|
C|------------------------------99999999999---------------------------------------------|
G|-44444444-7-7-7-7-7-7-7-7---7-77777777777---------------------------------------------|

A|---------------4442226---0555--------------442226----0-----------------------|
c--55555555555552222000-----55555555555552222000---------------------------|
C|-222222222222218888666-2444222222222222118888666-244---------------------|
G|-7777777777777-------1517----7777777777777------15-17------------------------|

 

Comentarios (0)
Ningún comentario :(
¿Necesitas ayuda, un consejo para compartir o simplemente quieres hablar sobre esta canción? Comience la discusión

Debes iniciar sesión para unirte a la discusión
o Registrarse

 

Acerca de esta canción

No hay información por esta canción.