Only Love Tab por Ben Howard

tablatura Ukulele sin acordes.

Añadir esta tab a su SongBook
Tablature / ChordsFont size: A- A A+

¿ No sabe cómo leer una tablatura o un acorde ?

curso de ukulele

#Verse

A|-------7---2---0--0--7/4--2---0--0--7/4--2-----|
E|--7/5--7---0---5--5-------7---5--5-------7-----|
C|-------9-------4--4-------4---4--4-------4-----|
G|-------9------------------4--------------4-----|

A|--7-7-7-7-7-7--9------------------------------------|
E|--9-9-9-9-9-9--9------------------------------------|
C|--9-9-9-9-9-9--9------------------------------------|
G|--6-6-6-6-6-6--9------------------------------------|

#Chorus

A|-----5---7--9--4--4------------------------0--0--0----|
E|--7--5---7-----9--9---5-5-5-4-4-4/5--------2----2--2--|
C|-----6---7-----6--6------------------4-4-1-1----------|
G|-----7---9----------------------------------2----------|

A|-----5---7--9--4--4------------------------0--0--0----|
E|--7--5---7-----9--9---5-5-5-4-4-4/5--------2----2--2--|
C|-----6---7-----6--6------------------4-4-1-1----------|
G|-----7---9----------------------------------2----------|

 

Comentarios (0)
Ningún comentario :(
¿Necesitas ayuda, un consejo para compartir o simplemente quieres hablar sobre esta canción? Comience la discusión

Debes iniciar sesión para unirte a la discusión
o Registrarse

 

Acerca de esta canción

No hay información por esta canción.