Marianas Trench (Intro) Tab por August Burns Red

tablatura Ukulele sin acordes.

Añadir esta tab a su SongBook
Tablature / ChordsFont size: A- A A+

¿ No sabe cómo leer una tablatura o un acorde ?

curso de ukulele

H                
-------------------------------------6-7-------------|
--6--65----6--65------1-01-1-01-1-01-------5---------|
---5----5---5----5---2-2--2-2--2-2-------------------|
-----------------------------------------5-----------|


Strum the following continually not separated as marked

-----------------------------------------------------|
--------------------------5--5--5---3--3--3----------|
----2-2-2-2--5--5--5--5------------------------------|
-----------------------------------------------6--6--|

 

Comentarios (0)
Ningún comentario :(
¿Necesitas ayuda, un consejo para compartir o simplemente quieres hablar sobre esta canción? Comience la discusión

Debes iniciar sesión para unirte a la discusión
o Registrarse

 

Acerca de esta canción

No hay información por esta canción.