Les Eaux De Mars Tab por Antonio Carlos Jobim

tablatura Ukulele sin acordes.

ImprimirAñadir esta tab a su SongBook
Tablature / ChordsFont size: A- A A+

¿ No sabe cómo leer una tablatura o un acorde ?

curso de ukulele

A||--1----3--1--1----3----|--1----3--1--1----3----|--1----3--1--1----3----|
E||-------0----------0----|-------0----------0----|-------0----------0----|
C||-----------------------|-----------------------|-----------------------|
G||-------0----------0----|-------0----------0----|-------0----------0----|

--1----3--1--1----3----|-------3----|-----------3--------|
-------0----------0----|-------0----|-----------0--------|
-----------------------|--0---------|--0-----------------|
-------0----------0----|-------3----|-----------3--------|

-------5----------5----|-------7----------7----|-------3----------3----|
--5----2--5--5----2----|--4----1--4--4----1----|--3----0--3--3----0----|
-----------------------|-----------------------|-----------------------|
-------5----------5----|-------5----------5----|-------0----------0----|

-------3----------3----|-------3----------3----|-------7----------7----|
--3----0--3--3----0----|-----------------------|--4----1--4--4----1----|
-----------------------|--6----2--6--6----2----|-----------------------|
-------3----------3----|-------2----------2----|-------5----------5----|

-------3----------3----|-------3----------3----|-------3----------3----|
-------0----------0----|--3----0--3--3----0----|-------1----------1----|
--4-------4--4---------|-----------------------|--5-------5--5---------|
-------0----------0----|-------3----------3----|-------1----------1----|

-------3----------3----|-------3----------3----|-------3----------3----|
-------0----------0----|--3----0--3-------0----|--3----0--3--3----0----|
--0-------0--0---------|-------------0---------|-----------------------|
-------0----------0----|-------0----------0----|-------3----------3----|

-------3----------3----|-------3----------3----|-------3----------3----|
-----------------------|-------1----------1----|-------0----------0----|
--6----2--6--6----2----|--5-------5--5---------|--4-------4--4---------|
-------2----------2----|-------1----------1----|-------0----------0----|

--1----3--1--1----3----|-------5----------5----|-------7----------7----|
-------0----------0----|--5----2--5--5----2----|--4----1--4--4----1----|
-----------------------|-----------------------|-----------------------|
-------3----------3----|-------5----------5----|-------5----------5----|

-------3----------3----|-------3----------3----|-------3----------3----|
--3----0--3--3----0----|--3----0--3-------0----|-----------------------|
-----------------------|-------------0---------|--6----2--6--0----2----|
-------0----------0----|-------3----------3----|-------2----------2----|

-------3----------3----|-------3----------3----|-------3----------3----|
-------1----------1----|--3----0--3-------0----|--3----0--3-------0----|
--5-------5--0---------|-------------0---------|-------------0---------|
-------1----------1----|-------0----------0----|-------3----------3----|

-------3----------3----|-------3----------3----|-------3----------3----|
-----------------------|-------1----------1----|--3----0--3-------0----|
--6----2--6--0----2----|--5-------5--0---------|-------------0---------|
-------2----------2----|-------1----------1----|-------0----------0----|

--1----3--1--1----3----|-------5----------5----|-------7----------7----|
-------0----------0----|--5----2--5--5----2----|--4----1--4--4----1----|
-----------------------|-----------------------|-----------------------|
-------0----------0----|-------5----------5----|-------5----------5----|

-------3----------3----|-------3----------3----|-------3----------3----|
--3----0--3--3----0----|--3----0--3--3----0----|-----------------------|
-----------------------|-----------------------|--6----2--6--6----2----|
-------0----------0----|-------3----------3----|-------2----------2----|

-------3----------3----|-------3----------3----|-------3----------3----|
-------1----------1----|--3----0--3--3----0----|--3----0--3--3----0----|
--5-------5--5---------|-----------------------|-----------------------|
-------1----------1----|-------0----------0----|-------3----------3----|

-------3----------3----|-------3----------3----|-------3----------3----|
-----------------------|-------1----------1----|-------0----------0----|
--6----2--6--6----2----|--5-------5--5---------|--4-------4--4---------|
-------2----------2----|-------1----------1----|-------0----------0----|

--1----3--1--1----3----|-------5----------5----|-------7----------7----|
-------0----------0----|--5----2--5--5----2----|--4----1--4--4----1----|
-----------------------|-----------------------|-----------------------|
-------0----------0----|-------5----------5----|-------5----------5----|

|--------3----------3----|--1----3--1--1----3----|-------5----------5----|
|---3----0--3--3----0----|-------0----------0----|--5----2--5--5----2----|
|*-----------------------|-----------------------|-----------------------|
|*-------0----------0----|-------0----------0----|-------5----------5----|

-------7----------7----|-------3----------3----|-------3----------3----|
--4----1--4--4----1----|--3----0--3--3----0----|--3----0--3--3----0----|
-----------------------|-----------------------|-----------------------|
-------5----------5----|-------0----------0----|-------3----------3----|

-------3----------3----|-------3----------3----|------------------|
-----------------------|-------1----------1----|------------------|
--6----2--6--6----2----|--5-------5--5---------|------------------|
-------2----------2----|-------1----------1----|------------------|

-------3----------3----|--1----3--1--1----3----|-------5----------5----|
-------0----------0----|-------0----------0----|--5----2--5--5----2----|
--4-------4--4---------|-----------------------|-----------------------|
-------0----------0----|-------0----------0----|-------5----------5----|

-------7----------7-----||--------3----------3----|--1----3--1--1----3----|
--4----1--4--4----1-----||---3----0--3--3----0----|-------0----------0----|
-----------------------*||*-----------------------|-----------------------|
-------5----------5----*||*-------0----------0----|-------0----------0----|

-------5----------5----|-------7----------7----|-------3----------3----|
--5----2--5--5----2----|--4----1--4--4----1----|-------0----------0----|
-----------------------|-----------------------|--4-------4--4---------|
-------5----------5----|-------5----------5----|-------0----------0----|

--1----3--1--1----3----|-------3----------3----|-------3----------3-----||
-------0----------0----|-----------------------|-------1----------1-----||
-----------------------|--6----2--6--6----2----|--5-------5--5---------*||
-------0----------0----|-------2----------2----|-------1----------1----*||

 

Comentarios (0)
Ningún comentario :(
¿Necesitas ayuda, un consejo para compartir o simplemente quieres hablar sobre esta canción? Comience la discusión

Debes iniciar sesión para unirte a la discusión
o Registrarse

 

Acerca de esta canción

No hay información por esta canción.