Chateau Tab por Angus And Julia Stone

tablatura Ukulele sin acordes.

ImprimirAñadir esta tab a su SongBook
Tablature / ChordsFont size: A- A A+

¿ No sabe cómo leer una tablatura o un acorde ?

curso de ukulele

A|-----------------------------|
E|--------------------------|
C|--------------------------|
G|---14---15----10----9----7---|

A|------------------|
E|-----5---3--------|
C|-5-4--------5-----|
G|------------------|

A|----------------------------------------|
E|---3---3----3----3----3----3----3----3--|
C|-5---5----5----5----5----5----5----5----|
G|----------------------------------------|

A|------------------------------------------|
E|-5-6-5----5-6-5----5-6-5------------------|
C|-------------------------------5-5--------|
G|------------------------------------------|

A|------------------------5----5----5----5-----|
E|---3---3---3---3---------------------|
C|--------------------5---5---5---5----|
G|---10---10---10---10----5---5---5---5----|

 

Comentarios (0)
Ningún comentario :(
¿Necesitas ayuda, un consejo para compartir o simplemente quieres hablar sobre esta canción? Comience la discusión

Debes iniciar sesión para unirte a la discusión
o Registrarse

 

Acerca de esta canción

No hay información por esta canción.