Forgetful Lucy Tab por Adam Sandler

tablatura Ukulele sin acordes.

Añadir esta tab a su SongBook
Tablature / ChordsFont size: A- A A+

¿ No sabe cómo leer una tablatura o un acorde ?

curso de ukulele

This is the same pattern throughout the whole song.
just play this along with the lyrics, and you
got yourself forgetful lucy.

^ ^ ^ ^ ^ ^ ^ ^ ^ ^ ^ ^
|-3--3-3--2--2-2--0-0-0-2--2-2-2-3--3-3--2--2-2--0-0-0-2--2-2-2-|
|-0--0-0--0--0-0--0-0-0-0--0-0-0-1--1-1--1--1-1--1-1-1-1--1-1-1-|
|-0--0-0--0--0-0--0-0-0-0--0-0-0-0--0-0--0--0-0--0-0-0-0--0-0-0-|
|-0--0-0--0--0-0--0-0-0-0--0-0-0-0--0-0--0--0-0--0-0-0-0--0-0-0-|

^ ^ ^ ^ ^ ^ ^ ^ ^ ^ ^ ^
|-3--3-3--2--2-2--0-0-0-2--2-2-2-3--3-3--2--2-2--0-0-0-2--2-2-2-|
|-0--0-0--0--0-0--0-0-0-0--0-0-0-1--1-1--1--1-1--1-1-1-1--1-1-1-|
|-0--0-0--0--0-0--0-0-0-0--0-0-0-0--0-0--0--0-0--0-0-0-0--0-0-0-|
|-0--0-0--0--0-0--0-0-0-0--0-0-0-0--0-0--0--0-0--0-0-0-0--0-0-0-|

^ ^ ^ ^ ^ ^ ^
|-2--2-2--2-2-2-2-2-2-2--2-2-2-0--------------------------------|
|-3--3-3--3-3-3-3-3-3-3--3-3-3-1--------------------------------|
|-2--2-2--2-2-2-2-2-2-2--2-2-2-0--------------------------------|
|-0--0-0--0-0-0-0-0-0-0--0-0-0-2--------------------------------|

 

Comentarios (0)
Ningún comentario :(
¿Necesitas ayuda, un consejo para compartir o simplemente quieres hablar sobre esta canción? Comience la discusión

Debes iniciar sesión para unirte a la discusión
o Registrarse

 

Acerca de esta canción

No hay información por esta canción.