El Cigarrito Tab par Victor Jara

Tablature Ukulélé sans accords.

ImprimerAjouter cette tab à votre SongBook
Tablature / ChordsFont size: A- A A+

Vous ne savez pas comment lire une tablature ou un accord ?
Ne manquez pas nos cours:

Comment lire une tablature pour ukulélé
Comment lire un accord

A||----------------|-------3----3----------|-------3----3----3----|-------5----5----3----|
E||-------------0--|--1------1---------0---|--1------1-----1------|--3------3-----1------|
C||----------0-----|---------------0-------|----------------------|----------------------|
G||----------------|-----2------2----0---0-|-----2------2------2--|-----4------4------2--|

-------5----5----3---3-|-------3----3----------|------3------3----------|
--3------3-----0-------|-------------------0---|--1-------1---------0---|
-----------------------|--0------0-----0-------|----------------0-------|
-----4------4------0---|-----0------0----0---0-|----2---2----2----0---0-|

------3------3----3----|------5------5----3----|------5------5----3---3-|
--1-------1-----1------|--3-------3-----1------|--3-------3-----0-------|
-----------------------|-----------------------|------------------------|
----2---2----2------2--|----4---4----4------2--|----4---4----4------0---|

-------3----3----3---3-|-------3----3----3---3-||--------3----3-----3--|
---------------1-------|---------------1-------||----------------------|
--0------0-------------|--0------0-------------||*--0------0-----0-----|
-----0------0------2---|-----0------0------2---||*-----0------0-----0--|

-----2*-----2--2--2--|------*-----3--3--3--|------*-----5--5--5--|-----3------3-----3--|
-----0*-----0--0--0--|--1--1*-----1--1--1--|---3-3*--3--3--3--3--|-----0*-----0--0--0--|
---4--*--4-----4-----|-----0*--5-----5-----|-----2*--------7-----|---0--*--0-----0-----|
-----0*-----0-----0--|-----2*-----2-----2--|-----4*-----4-----4--|-----0*-----0--0--0--|

-----2*-----2--2--2--|------*-----3--3--3--|------*-----5--5--5--|-----3------3----------|
-----0*-----0--0--0--|--1--1*-----1--1--1--|---3-3*--3--3--3--3--|-----0*-----0------0---|
---4--*--4-----4-----|-----0*--5-----5-----|-----2*--------7-----|---0--*--0-----0-------|
-----0*-----0-----0--|-----2*-----2-----2--|-----4*-----4-----4--|-----0*-----0----0---0-|

-------3----3----------|-------3----3----3---3-|-------5----5----3----|
--1------1---------0---|--1------1-----1-------|--3------3-----1------|
---------------0-------|-----------------------|----------------------|
-----2------2----0---0-|-----2------2------2---|-----4------4------2--|

-------5----5----3---3-|-----------------------|-------3----3----------|
--3------3-----0-------|-----0------0------0---|--1------1---------0---|
-----------------------|--0------0-----0-------|---------------0-------|
-----4------4------0---|-------0----0----0---0-|-----2------2----0---0-|

-------3----3----3---3-|-------5----5----3---3-|------5------5----3---3-|
--1------1-----1-------|--3------3-----1-------|--3-------3-----0-------|
-----------------------|-----------------------|------------------------|
-----2------2------2---|-----4------4------2---|----4---4----4------0---|

-------3----3----3---3--||
---------------1--------||
--0------0-------------*||
-----0------0------2---*||

-----------------------|-------3----3----------|
-----0------0------0---|--1------1---------0---|
--0------0-----0-------|---------------0-------|
-------0----0----0---0-|-----2------2----0---0-|

-------3----3----3---3-|-------5----5----3---3-|------5------5----3---3-|
--1------1-----1-------|--3------3-----1-------|--3-------3-----0-------|
-----------------------|-----------------------|------------------------|
-----2------2------2---|-----4------4------2---|----4---4----4------0---|

-------3----3------||-----------5-----------5---|----------3-----------3----||
-------------------||---3-0---0---0-3-0---0---0-|--1-0---0---0-1-0---0---0--||
--0------0---------||*--------------------------|--------------------------*||
-----0------0------||*------4-----------4-------|------2-----------2-------*||

----3---3-|-------3----3----3---3-|-------3----3----3----|-------3----3-----3--|
--0-------|---------------1-------|---------------1------|---------------------|
----------|--0------0-------------|--0------0------------|--0------0-----0-----|
------0---|-----0------0------2---|-----0------0------2--|-----0------0-----0--|

------------------2-----||
----0---0-0-0---0----0--||
--4---0-----------------||
--------------0---------||

 

Commentaires (0)
Aucun commentaire :(
Besoin d'aide, envie de partager une astuce, ou simplement de parler de cette chanson? Commencez la discussion!

Vous devez être connecté pour participer à la discussion
ou Inscription

 

A propos de cette chanson

Pas d'information sur cette chanson.