Dancing In The Moonlight Intro (Intro) Tab par Van Morrison

Tablature Ukulélé sans accords.

Ajouter cette tab à votre SongBook
Tablature / ChordsFont size: A- A A+

Vous ne savez pas comment lire une tablature ou un accord ?
Ne manquez pas nos cours:

Comment lire une tablature pour ukulélé
Comment lire un accord

|--1--10--6--1--------6--6--6|
|3--------------3--4--8--8--8|
|----------------------------|
|----------------------------|


|8---------8------8--1--10|
|8--10--8--8--10--8-----11|
|-------------------------|
|-------------------------|


|1--6--10--8--1--5--8--6-----1--10--6--1-----1-----6--6--6|
|-------------------------3---------------3-----4--8--8--8|
|---------------------------------------------------------|
|---------------------------------------------------------|


|8---------8------8--1--10|
|8--10--8--8--10--8-----11|
|-------------------------|
|-------------------------|

 

Commentaires (0)
Aucun commentaire :(
Besoin d'aide, envie de partager une astuce, ou simplement de parler de cette chanson? Commencez la discussion!

Vous devez être connecté pour participer à la discussion
ou Inscription

 

A propos de cette chanson

Pas d'information sur cette chanson.