Bowl For Two Tab par The Expendables

Tablature Ukulélé sans accords.

9/10
ImprimerAjouter cette tab à votre SongBook

Tablature / Chords (Chanson entière)

Font size: A- A A+

Artiste: 
Album: 
Année:  2004
Tonalité: inconnuTablature (sans accords)
INTRO 
Ukulele 1
A|----0---0h2p0---0-2-5-2-5-7-5-2-5-2--/7------------------------|
E|--3---3-------3------------------------------------------------|
C|---------------------------------------------------------------|
G|---------------------------------------------------------------|
Ukulele 2
A|---------------------------------------2-----2-----2---2---2---|
E|--------------------------------------0--0---0---0-------3---3-|
C|---------------------------------------------------------------|
G|----------------------------------------0----0-------0---------|
Ukulele 1
A|----0---0h2p0---0-2-5-2-5-7-5-2-5-2----------------------0h2p0-5--|
E|--3---3-------3----------------------------------------3----------|
C|------------------------------------------------------------------|
G|------------------------------------------------------------------|
Ukulele 1
A|---------------------------------------2-------2-------9-----------|
E|--------------------------------------0--0---0--0--------+--------|
C|------------------------------------------------------------------|
G|----------------------------------------0-----0--------9----------|
Ukulele 2
A|----0---0h2p0---0-2-5-2-5-7-5-2-5-2--/7------------------------|
E|--3---3-------3------------------------------------------------|
C|---------------------------------------------------------------|
G|---------------------------------------------------------------|
Ukulele 1
A|---------------------------------------2-----2-----2---2---2---|
E|--------------------------------------0--0---0---0-------3---3-|
C|---------------------------------------------------------------|
G|----------------------------------------0----0-------0---------|
Ukulele 2
A|----0---0h2p0---0-2-5-2-5-7-5-2-5-2-------------------------------|
E|--3---3-------3---------------------------------------------------|
C|------------------------------------------------------------------|
G|------------------------------------------------------------------|
Ukulele 1
A|---------------------------------------2---------------9-----------|
E|--------------------------------------0--0---------------+--------|
C|------------------------------------------------------------------|
G|----------------------------------------0--------------9----------|
Solo P H P ~ ~ ~~ ~
A|---------------------------------------------------------------------------|
E|--5-----5--3--5----3--5--5----3----------3------3---5------5---3--5--------|
C|---------------------------------------------------------------------------|
G|----b----------------------b-----9---------7--9-------b-7------------9-----|
H P H P H H H H S S
A|-----------------------------------------------------------------|
E|-----------3--5--3-----------3--5-------6--------6--------------|
C|----------------------------------------------------------------|
G|--7--9--7-----------7--9--11--------4-------9--9-----9--7--9-----|
P ~ P
A|---------------------------------------------------------------------------|
E|----------b-----------------------------3--5--5----3-----3----------|
C|--------------------------------------------------------------------|
G|--12--14--14----12--9--12------12--7--12--9------------b-----9------7------|

| / slide up
| \ slide down
| h hammer-on
| p pull-off
| ~ vibrato
| + natural harmonic
| * artificial harmonic
| x palm mute note
| b bend note

⇢ Cette tablature ne vous convient pas? Voir 1 autre(s) version(s)

Tab par , 22 avril 2012

Commentaires (1)

Commenter
Partagez vos rythmiques, vos accords ou vos astuces pour jouer cette tablature!
Filtrer par:
carolinedixon646 avatar
The only thing brighter than the flames is the spark between us. Let's see where the heat takes us tonight, slowly, with a touch of what ifs... f1nd me on carolinedixon_mooo_com change _ to dot
19 Jul 2024
Commentaire

Top Tabs et Accords de The Expendables, ne manquez pas ces chansons!

A propos de cette chanson: Bowl For Two

Pas d'information sur cette chanson.

As-tu repris Bowl For Two sur ton Ukulélé ? Partage ta reprise!
Ajouter une reprise