Love Song Tab par Tesla

Tablature Ukulélé sans accords.

7/10
ImprimerAjouter cette tab à votre SongBook

Tablature / Chords (Chanson entière)

Font size: A- A A+

Artiste: 
Album: 
Année:  2008
Tonalité: inconnuTablature (sans accords)
|------------4-4-4-----------------|--------------0--5--7--2--5--2-4-5-|
|-3-3-2-0--2-----------------------|-2--3--3-2-0-----------2-----3-----|
|-2--------------------------------|-2---------------------2-----------|
|-----------------11--11--11--9--7-|--------------6----------4-4-------|

|--------------0--5--7--2-0---5-----5-----0-----4----5-------2-4-5---4-5|
|-2--3--3-2-0---------------0-3-----------0---0------2-2-3-2------------|
|-2---------------------2---8-----2------------------2------------------|
|--------------6----------6-----0-----0---2-2-----2--2-2-4-2-------2----|

Tab par , 27 nov. 2012

Commentaires (0)

Aucun commentaire :(
Besoin d'aide, envie de partager une astuce, ou simplement de parler de cette chanson? Commencez la discussion!

Commenter
Partagez vos rythmiques, vos accords ou vos astuces pour jouer cette tablature!

A propos de cette chanson: Love Song

Pas d'information sur cette chanson.

As-tu repris Love Song sur ton Ukulélé ? Partage ta reprise!
Ajouter une reprise