In Too Deep Tab par Sum 41

Tablature Ukulélé sans accords.

Ajouter cette tab à votre SongBook
Tablature / ChordsFont size: A- A A+

Vous ne savez pas comment lire une tablature ou un accord ?
Ne manquez pas nos cours:

Comment lire une tablature pour ukulélé
Comment lire un accord

# When not identified, both ukes play 

Intro/Part 1 of verse 1
Uke 1
A|---------7---11----------------------|
E|--77-7-7---7----7--77-7-7-5-4-5-7----|
C|-------------------------------------|
G|-------------------------------------|
Uke 2
A|----7--------------00-0-0-6-7-9-11---|
E|--0----0-44-5-7-5--------------------|
C|-------------------------------------|
G|-------------------------------------|
Uke 1
A|---------7---11----------------------|
E|--77-7-7---7----7--77-7-7-5-4--------|
C|------------------------------6-4----|
G|-------------------------------------|
Uke 2
A|----7--------------00-0-0-6-7-9-11---|
E|--0----0-44-5-7-5--------------------|
C|-------------------------------------|
G|-------------------------------------|

Part 2 of verse 1
Maybe we're just trying too hard
A|----11-----------11-------11-------|
E|----12-----------12-------12-------|
C|----8------------8--------8--------|
G|----9------------9--------9--------|
Uke 1
When really it's closer
A|--12---------12-------12-----------|
E|--12---------12-------12-----------|
C|--9----------9--------9------------|
G|--9----------9--------9------------|
Uke 2
A|--7----------7--------7------------|
E|--5----------5--------5------------|
C|--4----------4--------4------------|
G|--x----------x--------x------------|
Than it is too far
A|--11---------11---11--0-0-0-0-0-0-0-0--|
E|--12---------12---12--0-0-0-0-0-0-0-0--|
C|--8----------8----8---4-4-4-4-4-4-4-4--|
G|--9----------9----9---2-2-2-2-2-2-2-2--|

Chorus
'Cause I'm in too deep and I'm tryin' to keep
A|---------7-7-7-----00-0-0----7-7-7-----00-0-0------|
E|---------7-7-7-----00-0-0----7-7-7-----00-0-0------|
C|---------4-4-4-----44-4-4----4-4-4-----44-4-4------|
G|---------4-4-4-----22-2-2----4-4-4-----22-2-2------|
Up above in my head, instead of going under
A|--7-7-7------00-0-0---7-7-7---------0-0----------|
E|--7-7-7------00-0-0---7-7-7---------0-0----------|
C|--4-4-4------44-4-4---4-4-4---------4-4----------|
G|--4-4-4------22-2-2---4-4-4---------2-2----------|
'Cause I'm in too deep and I'm tryin' to keep
A|---------7-7-7-----00-0-0----7-7-7-----00-0-0------|
E|---------7-7-7-----00-0-0----7-7-7-----00-0-0------|
C|---------4-4-4-----44-4-4----4-4-4-----44-4-4------|
G|---------4-4-4-----22-2-2----4-4-4-----22-2-2------|
Up above in my head, instead of going under instead of going under
A|--7-7-7------00-0-0---7-7-7---------5-5-5-5-0-0-0-0-x-x-x-x-x-x-x-|
E|--7-7-7------00-0-0---7-7-7---------5-5-5-5-0-0-0-0-x-x-x-x-x-x-x-|
C|--4-4-4------44-4-4---4-4-4---------2-2-2-2-4-4-4-4-x-x-x-x-x-x-x-|
G|--4-4-4------22-2-2---4-4-4---------2-2-2-2-2-2-2-2-x-x-x-x-x-x-x-|

Uke 1
A|-7-7------xx-x-x-x--7-7------xx-x---x--|
E|-7-7------55-5-4-5--7-7------55-4-2-4--|
C|-4-4------44-4-3-4--4-4------44-3-1-3--|
G|-4-4------22-2-2-2--4-4------22-1---1--|
Uke 2
A|------7------------------7--------|
E|----------------------------------|
C|----------------------------------|
G|----------------------------------|
Uke 1
A|-7-7------xx-x-x-x--7-7------xx-x---x--|
E|-7-7------55-5-4-5--7-7------55-4-2-4--|
C|-4-4------44-4-3-4--4-4------44-3-1-3--|
G|-4-4------22-2-2-2--4-4------22-1---1--|
Uke 2
A|-----11\----------------11\-----------|
E|----------------------------------|
C|-----8\-----------------8\------------|
G|----------------------------------|

Verse
Seems like each time I'm with you I lose my mind
A|--7---7------------------11-------12-12------|
E|--7---7------------------11-------12-12------|
C|--4---4------------------8--------9--9----|
G|--4---4------------------8--------9--9----|
Because I'm bending over backwards to relate
A|-11--------7--7-------------------11-1212---11/1212--|
E|-11--------7--7-------------------11-1212---11/1212--|
C|-8---------4--4-------------------8--9-9----8-/9-9---|
G|-8---------4--4-------------------8--9-9----8-/9-9---|
It's one thing to complain but when you're driving me insane
A|11---7---7---------------------11----------12-12----|
E|11---7---7---------------------11----------12-12----|
C|8----4---4---------------------8-----------9--9---|
G|8----4---4---------------------8-----------9--9---|
Well then I think it's time that we took a break
A|---11-----7-----7----------------------11-1212---11/1212--|
E|---11-----7-----7----------------------11-1212---11/1212--|
C|---8------4-----4----------------------8--9-9----8-/9-9---|
G|---8------4-----4----------------------8--9-9----8-/9-9---|
Maybe we're just trying too hard
A|--7---2---2---2---2---2---2---2---0---0---0---0--|
E|--7---4---4---4---4---4---4---4---0---0---0---0--|
C|--4---4---4---4---4---4---4---4---4---4---4---4--|
G|--4---4---4---4---4---4---4---4---2---2---2---2--|
When really it's closer than it is too far
A|-0----0----0----0----7--2--2--2--2--2--2--2--2--0-0-0-0-0-0-0-0-|
E|-0----0----0----0----7--4--4--4--4--4--4--4--4--0-0-0-0-0-0-0-0-|
C|-4----4----4----4----4--4--4--4--4--4--4--4--4--4-4-4-4-4-4-4-4-|
G|-2----2----2----2----4--4--4--4--4--4--4--4--4--2-2-2-2-2-2-2-2-|

Chorus...

...(Instead of going under)
A|--7---7---7---7---5---5---5---5----|
E|--7---7---7---7---5---5---5---5----|
C|--4---4---4---4---2---2---2---2----|
G|--4---4---4---4---2---2---2---2----|
Instead of going under
A|--0---0---0---0--x-x-x-x-x-x-x-x---|
E|--0---0---0---0--x-x-x-x-x-x-x-x---|
C|--4---4---4---4--x-x-x-x-x-x-x-x---|
G|--2---2---2---2--x-x-x-x-x-x-x-x---|

A|---------7b----------7b----------7b----x-x-x-x-x-x-|
E|-0-0-0-0----00-0-0-0----00-0-0-0----00-x-x-x-x-x-x-|
C|---------------------------------------x-x-x-x-x-x-|
G|---------------------------------------x-x-x-x-x-x-|

Solo
Uke 1
A|----------------------------------------|
E|-5p4p0h5p4p0-h7p5p0h7p5p0---------------|
C|-------------------------h5h6p5h6h8-----|
G|----------------------------------------|
Uke 2
A|-7---7---7---7---7---7---9--9--9--9--9--|
E|-7---7---7---7---7---7---9--9--9--9--9--|
C|-4---4---4---4---4---4---6--6--6--6--6--|
G|-4---4---4---4---4---4---6--6--6--6--6--|
Uke 1
A|------------------------------------------|
E|-4p0h5p0h7p0h5p0h4p0h2p0h4p0h5p0----------|
C|------------------------------------------|
G|------------------------------------------|
Uke 2
A|-5--5--5--5--5---0--0--0--0--0-------|
E|-5--5--5--5--5---0--0--0--0--0-------|
C|-2--2--2--2--2---4--4--4--4--4-------|
G|-2--2--2--2--2---2--2--2--2--2-------|
Uke 1
A|----------------------------------------|
E|-5p4p0h5p4p0-h7p5p0h7p5p0---------------|
C|-------------------------h5h6p5h6h8-----|
G|----------------------------------------|
Uke 2
A|-7---7---7---7---7---7---9--9--9--9--9--|
E|-7---7---7---7---7---7---9--9--9--9--9--|
C|-4---4---4---4---4---4---6--6--6--6--6--|
G|-4---4---4---4---4---4---6--6--6--6--6--|
Uke 1
A|-------------------------------------|
E|-4p0h5p0h7p0h5p0h4p0h2p0--7-9-7------|
C|-------------------------------------|
G|-------------------------------------|
Uke 2
A|-5--5--5--5--5---0--0--0--0--0-------|
E|-5--5--5--5--5---0--0--0--0--0-------|
C|-2--2--2--2--2---4--4--4--4--4-------|
G|-2--2--2--2--2---2--2--2--2--2-------|

Verse
I can't sit back and wonder why
A|-7-7---9-9-------0-0------2-2-------------|
E|-7-7---9-9-------0-0------2-2-------------|
C|-4-4---6-6-------4-4------x-x-------------|
G|-4-4---6-6-------2-2------4-4-------------|
It took so long for this to die
A|-7-7----9-9-----0-0------2-2--------------|
E|-7-7----9-9-----0-0------2-2--------------|
C|-4-4----6-6-----4-4------x-x--------------|
G|-4-4----6-6-----2-2------4-4--------------|
Uke 1
And I hate it when you fake it
A|-7-7-------9-9----0-0----------2-2--------|
E|-7-7-------9-9----0-0----------2-2--------|
C|-4-4-------6-6----4-4----------x-x--------|
G|-4-4-------6-6----2-2----------4-4--------|
Uke 2
A|-------6/7-----6/7--------6/7-------6/7---|
E|------------------------------------------|
C|------------------------------------------|
G|------------------------------------------|
Uke 1
You can't hide it you might as well embrace it
A|-7-7-----------9-9---------0-0-------------2-2----|
E|-7-7-----------9-9---------0-0-------------2-2----|
C|-4-4-----------6-6---------4-4-------------x-x----|
G|-4-4-----------6-6---------2-2-------------4-4----|
Uke 2
A|---------6/7---------6/7------------6/7--------7/----|
E|-----------------------------------------------7/----|
C|-----------------------------------------------------|
G|-----------------------------------------------------|
Uke 1
So believe me it's not easy
A|-7-7------9-9------0-0----------2-2---------------|
E|-7-7------9-9------0-0----------2-2---------------|
C|-4-4------6-6------4-4----------x-x---------------|
G|-4-4------6-6------2-2----------4-4---------------|
Uke 2
A|------------------------------------------|
E|-----3/4-------3/4----------3/4------3/4-------------|
C|------------------------------------------|
G|------------------------------------------|
Uke 1
It seems that something's telling me
A|-7-7----9-9--------0-----------x-x-x-x-x-x-x-x--|
E|-7-7----9-9--------0-----------x-x-x-x-x-x-x-x--|
C|-4-4----6-6--------4-----------x-x-x-x-x-x-x-x--|
G|-4-4----6-6--------2-----------x-x-x-x-x-x-x-x--|
Uke 2
A|-------------------------------x-x-x-x-x-x-x-x--|
E|-----3/4------3/4--------------x-x-x-x-x-x-x-x--|
C|-------------------------------x-x-x-x-x-x-x-x--|
G|-------------------------------x-x-x-x-x-x-x-x--|

Chorus...

Instead of going under
A|-7-7-7-7-5-5-5-5-0-0-0-0-x-x-x-x---|
E|-7-7-7-7-5-5-5-5-0-0-0-0-6-6-6-6---|
C|-4-4-4-4-2-2-2-2-4-4-4-4-5-5-5-5---|
G|-4-4-4-4-2-2-2-2-2-2-2-2-3-3-3-3---|

# keep on playing this part 7x for the “Instead of going under”s
Uke 1
A|-7-7-7-7-5-5-5-5-0-0-0-0-0-0-0-0--|
E|-7-7-7-7-5-5-5-5-0-0-0-0-0-0-0-0--|
C|-4-4-4-4-2-2-2-2-4-4-4-4-4-4-4-4--|
G|-4-4-4-4-2-2-2-2-2-2-2-2-2-2-2-2--|
Uke 2
A|----------------------------------|
E|-4-5-4-5-7-5-4-5-4-5-4-5-4-2-0-2--|
C|-4-4-4-4-4-4-4-4-4-4-4-4-4-1---1--|
G|----------------------------------|

Outro
Uke 2
A|----------------------------------|
E|-4-5-4-5-7-5-4-5-4-5-4-5-4-2-0-2--|
C|-4-4-4-4-4-4-4-4-4-4-4-4-4-1---1--|
G|----------------------------------|

Uke 2
A|-----------------------------------|
E|-4-5-4-5-7-5-4-5-4-5-4-5-4-2-0-2-0-|
C|-4-4-4-4-4-4-4-4-4-4-4-4-4-1---1---|
G|-----------------------------------|

 

Commentaires (0)
Aucun commentaire :(
Besoin d'aide, envie de partager une astuce, ou simplement de parler de cette chanson? Commencez la discussion!

Vous devez être connecté pour participer à la discussion
ou Inscription

 

A propos de cette chanson

Pas d'information sur cette chanson.