Fat Lip Tab par Sum 41

Tablature Ukulélé sans accords.

Ajouter cette tab à votre SongBook
Tablature / ChordsFont size: A- A A+

Vous ne savez pas comment lire une tablature ou un accord ?
Ne manquez pas nos cours:

Comment lire une tablature pour ukulélé
Comment lire un accord

Intro part 1
A---------11----------9----------11---------9h7-
E----------------------------------------------- 2X
C-8-9-11------8-9-11-----8-9-11------8-9-11-----
G-----------------------------------------------
Intro part 2
Uke 1
A---------11----------9----------11---------9h7-
E-----------------------------------------------
C-8-9-11------8-9-11-----8-9-11------8-9-11-----
G-----------------------------------------------
Uke 2 2X
A-7-7--7--7-7--7-7--0---7-7--7--7-7--7-7--0-----
E-7-7--7--7-7--7-7--0---7-7--7--7-7--7-7--0-----
C-4-4--4--4-4--4-4--2---4-4--4--4-4--4-4--2-----
G-4-4--4--4-4--4-4--4---4-4--4--4-4--4-4--4-----

Verse 1
Storming through the party like my name is El Niño
A--7-------------------7-6-7-------------
E--7-------------------------------7-7---
C--4-------------------------------6-6---
G--4-------------------------------4-4---
When I'm hanging out drinking in the back of el camino
A------------------------------7-6-7-------------------
E--------5-5-------------------------------7-4-2-0-----
C--------4-4-------------------------------------------
G--------2-2-------------------------------------------
As a kid was a skid and no one knew me by name
A----7--7-------------7-6-7---------------------
E----7--7-------------------------------7--7---
C----4--4-------------------------------6--6---
G----4--4-------------------------------4--4---
I trashed my own house party cuz nobody came
A------------------------------7-6-7----------------
E--5-5----------------------------------5-4-2-0-----
C--4-4----------------------------------------------
G--2-2----------------------------------------------

Pre-chorus 1
And I know I'm not the one you thought you knew back In high school
A-----7---7---7---7---7---7---7---7---7---7---7---7---7---7---7---7-
E-----7---7---7---7---7---7---7---7---7---7---7---7---7---7---7---7-
C-----4---4---4---4---4---4---4---4---4---4---4---4---4---4---4---4-
G-----4---4---4---4---4---4---4---4---4---4---4---4---4---4---4---4-
Never going never showing up whenever we had to
A--4--4--4--4--4--4--4--4--0--0--0--0--0--0--0--0--
E--4--4--4--4--4--4--4--4--0--0--0--0--0--0--0--0--
C--1--1--1--1--1--1--1--1--2--2--2--2--2--2--2--2--
G--1--1--1--1--1--1--1--1--4--4--4--4--4--4--4--4--
The attention that we crave don't tell us to behave
A-----7--7--7--7--7--7--7--7--7--7--7--7--7--7--7--7-
E-----7--7--7--7--7--7--7--7--7--7--7--7--7--7--7--7-
C-----4--4--4--4--4--4--4--4--4--4--4--4--4--4--4--4-
G-----4--4--4--4--4--4--4--4--4--4--4--4--4--4--4--4-
I'm sick of always hearing act your age
A---4---4---4---4---4---4---4---4---0--------0--------
E---4---4---4---4---4---4---4---4---0--------0--------
C---1---1---1---1---1---1---1---1---2--------2--------
G---1---1---1---1---1---1---1---1---4--------4--------

Chorus
I don't wanna waste my time Become another
A-------------7--7-------------------
E-------------7--7--7-7-9-9-9-9-9-----------
C-------------4--4--6-6-8-8-8-8-8-----------
G-------------4--4--4-4-6-6-6-6-6-----------
casualty of soci—ety I'll never fall in
A--6--6--7--7--6--6--7--7----------7--7--------
E--4--4--5--5--4--4--5--5----------7--7--7-7---
C--3--3--4--4--3--3--4--4----------4--4--6-6---
G--x--x--x--x--x--x--x--x----------4--4--4-4---
line Become another victim of your conformity And back down
A---------------------6---6---7---7---6---6---7---7----------
E-9---9---9---9---9---4---4---5---5---4---4---5---5----------
C-8---8---8---8---8---3---3---4---4---3---3---4---4----------
G-6---6---6---6---6---x---x---x---x---x---x---x---x----------

Intro part 2

Verse 2
Be... Cause... You.... Don't
Know us at all We laugh when old people fall
A--7--------------------7-6-7-------------
E--7--------------------------------7-7---
C--4--------------------------------6-6---
G--4--------------------------------4-4---
But what would you expect with a conscience so small
A------------------------------7--6--7---------------------
E--------5-5--------------------------------------5-4-2-0--
C--------4-4-----------------------------------------------
G--------2-2-----------------------------------------------
Heavy metal and mullets is how we were raised
A----7---------------------7-6-7--------------
E----7---------------------------------7--7---
C----4---------------------------------6--6---
G----4---------------------------------4--4---
Maiden and Priest were the gods that we praised
A------------------------------7-6-7----------------
E--5-5----------------------------------5-4-2-0-----
C--4-4----------------------------------------------
G--2-2----------------------------------------------

Pre-chorus 2
And we like having fun at other peoples expense and
A---7--7--7--7--7--7--7--7--7--7--7--7--7--7--7--7-
E---7--7--7--7--7--7--7--7--7--7--7--7--7--7--7--7-
C---4--4--4--4--4--4--4--4--4--4--4--4--4--4--4--4-
G---4--4--4--4--4--4--4--4--4--4--4--4--4--4--4--4-
Cutting people down is just a minor offence
A--4--4--4--4--4--4--4--4--0--0--0--0--0--0--0--0--
E--4--4--4--4--4--4--4--4--0--0--0--0--0--0--0--0--
C--1--1--1--1--1--1--1--1--2--2--2--2--2--2--2--2--
G--1--1--1--1--1--1--1--1--4--4--4--4--4--4--4--4--
And it's none of your concernI guess I'll never learn
A-----7--7--7--7--7--7--7--7--7--7--7--7--7--7--7--7-
E-----7--7--7--7--7--7--7--7--7--7--7--7--7--7--7--7-
C-----4--4--4--4--4--4--4--4--4--4--4--4--4--4--4--4-
G-----4--4--4--4--4--4--4--4--4--4--4--4--4--4--4--4-
I'm sick of being told to wait my turn
A---4---4---4---4---4---4---4---4---0--------0--------
E---4---4---4---4---4---4---4---4---0--------0--------
C---1---1---1---1---1---1---1---1---2--------2--------
G---1---1---1---1---1---1---1---1---4--------4--------

Chrous

A--7-7----7-7----7----7-7----7-7----0--------
E--7-7----7-7----7----7-7----7-7----0--------
C--4-4----4-4----4----4-4----4-4----2--------
G--4-4----4-4----4----4-4----4-4----4--------

A--7-7----7-7----7----7-7----7-7------------
E--7-7----7-7----7----7-7----7-7------------
C--4-4----4-4----4----4-4----4-4------------
G--4-4----4-4----4----4-4----4-4------------

Bridge
Don't count on me, to let you know when
A--------7-----------7-----------4------0-----0-
E-----7-----7-----7-----7-----4-----4------0----
C--4-----------3-----------1--------------------
G-----------------------------------------------
Don't count on me, I'll do it again
A--------7-----------7-----------4------0-----0-
E-----7-----7-----7-----7-----4-----4------0----
C--4-----------3-----------1--------------------
G-----------------------------------------------

Uke 1 Don't count on me, it's the point you're missing
A--------7-----------7-----------4------0-----0-
E-----7-----7-----7-----7-----4-----4------0----
C--4-----------3-----------1--------------------
G-----------------------------------------------
Uke 2
A--7-----7-----9-----9-----7-----7------7-------
E-----7-----7-----7-----7-----7-----7h9----9--7-
C-----------------------------------------------
G-----------------------------------------------

Don't count on me, cause I'm not listening
A--------7-----------7-----------4------0--0-0-0-0-
E-----7-----7-----7-----7-----4-----4------0-0-0-0-
C--4-----------3-----------1---------------2-2-2-2--
G------------------------------------------4-4-4-4--
Uke 2
A--7-----7-----9-----9-----7-----7------7-------
E-----7-----7-----7-----7-----7-----7h9----9--7-
C-----------------------------------------------
G-----------------------------------------------

Well I'm a no goodnick lower middle class brat
A--7--7----7---7--7--7--7-----0-
E--7--7----7---7--7--7--7-----0-
C--4--4----4---4--4--4--4-----2-
G--4--4----4---4--4--4--4-----4-
Back packed and I don't give a $h1t about nothing.
A--7--7----7---7--7--7--7-----0-
E--7--7----7---7--7--7--7-----0-
C--4--4----4---4--4--4--4-----2-
G--4--4----4---4--4--4--4-----4-
You be standing on the corner talking all that kufuffin
A-----------------------------------------------7\----
E-----------------------------------------------7\----
C-----------------------------------------------4\----
G-----------------------------------------------4\----
But you don't make sense from all the gas you be huffing
A--7--7----7---7--7--7--7-----0-
E--7--7----7---7--7--7--7-----0-
C--4--4----4---4--4--4--4-----2-
G--4--4----4---4--4--4--4-----4-
Then if the egg don't stain you'll be ringing off the hook
A--7--7----7---7--7--7--7-----0-
E--7--7----7---7--7--7--7-----0-
C--4--4----4---4--4--4--4-----2-
G--4--4----4---4--4--4--4-----4-
You're on the hit list wanted in the telephone book.
A-------------0--0-------------------0---0---7---
E-------------0--0-------------------0---0---7-----
C-------------4--4-------------------4---4---4-----
G-------------2--2-------------------2---2---4-----
I like songs with distortion, to drink in proportion.
A--7--7----7---7--7--7--7-----0-
E--7--7----7---7--7--7--7-----0-
C--4--4----4---4--4--4--4-----2-
G--4--4----4---4--4--4--4-----4-
The doctor* said my mom should have had an abortion

A-0-0-0-0-0-0-0-0-0-0-0-0-0-0-0-0-0-0-0-0-0-0-0-0-0-0-0-0-0-0-0-0
E-0-0-0-0-0-0-0-0-0-0-0-0-0-0-0-0-0-0-0-0-0-0-0-0-0-0-0-0-0-0-0-0
C-4-4-4-4-4-4-4-4-4-4-4-4-4-4-4-4-4-4-4-4-4-4—4-4-4-4-4-4-4-4-4-4
G-2-2-2-2-2-2-2-2-2-2-2-2-2-2-2-2-2-2-2-2-2-2-2-2-2-2-2-2-2-2-2-2

Chorus

Intro part 2

End with
A--7--7----7--7-----
E--7--7----7--7-----
C--4--4----4--4-----
G--4--4----4--4-----

 

Commentaires (0)
Aucun commentaire :(
Besoin d'aide, envie de partager une astuce, ou simplement de parler de cette chanson? Commencez la discussion!

Vous devez être connecté pour participer à la discussion
ou Inscription

 

A propos de cette chanson

Pas d'information sur cette chanson.