My Wave Tab par Soundgarden

Tablature Ukulélé sans accords.

Ajouter cette tab à votre SongBook
Tablature / ChordsFont size: A- A A+

Vous ne savez pas comment lire une tablature ou un accord ?
Ne manquez pas nos cours:

Comment lire une tablature pour ukulélé
Comment lire un accord

A|-3--5--5--|-3--5--5--|-3--5--5--|
E|-3--5--5--|-3--5--5--|-3--5--5--|
C|-5--7--7--|-5--7--7--|-5--7--7--|
G|----------|----------|----------|

A|-5---3--5--5--|-5---3--5--5--|-5---3--5--5--|
E|-3---1--3--3--|-3---1--3--3--|-3---1--3--3--|
C|-----7--9--9--|-----7--9--9--|-----7--9--9--|
G|-3------------|-3------------|-3------------|

A|-5---3--3--3--5--5--|-5---3--3--3--5--5--|-5---3--3--3--5--5--|-5---3--3-----7--7--|
E|-----1--1--1--3--3--|-----1--1--1--3--3--|-----1--1--1--3--3--|-----1--1--1--3--3--|
C|-4---7--7--7--9--9--|-4---7--7--7--9--9--|-4---7--7--7--9--9--|-4---7--7--0--------|
G|-0------------------|-0------------------|-0------------------|-0---3--3--3--5--5--|

A|-2---5--5--5--7--7--|-2---5--5--5--7--7--|-2---5--5--5--7--7--|-2---3--3--3--5--5--|
E|-0---1--1--1--3--3--|-0---1--1--1--3--3--|-0---1--1--1--3--3--|-0---1--1--1--3--3--|
C|-2------------------|-2------------------|-2------------------|-2---7--7--7--9--9--|
G|-0---3--3--3--5--5--|-0---3--3--3--5--5--|-0---3--3--3--5--5--|-0---3--3-----------|
A|-0---3--3--3--5--5--|-0---3--3--3--5--5--|-0---3--3--3--5--5--|-0---3--3--3--5--5--|
E|-0---3--3--3--5--5--|-0---3--3--3--5--5--|-0---3--3--3--5--5--|-0---3--3--3--5--5--|
C|-2---5--5--5--7--7--|-2---5--5--5--7--7--|-2---5--5--5--7--7--|-2---5--5--5--7--7--|
G|-0------------------|-0------------------|-0------------------|-0------------------|
A|-0---3--3--3--5--5--|-0---3--3--3--5--5--|-0---3--3--3--5--5--|-0---3--3--3--5--5--|
E|-0---3--3--3--5--5--|-0---3--3--3--5--5--|-0---3--3--3--5--5--|-0---3--3--3--5--5--|
C|-2---5--5--5--7--7--|-2---5--5--5--7--7--|-2---5--5--5--7--7--|-2---5--5--5--7--7--|
G|-0------------------|-0------------------|-0------------------|-0------------------|
A|-0---3--3--3--5--5--|-0---3--3--3--5--5--|-0---3--3--3--5--5--|-0---3--3--3--5--5--|
E|-0---3--3--3--5--5--|-0---3--3--3--5--5--|-0---3--3--3--5--5--|-0---3--3--3--5--5--|
C|-2---5--5--5--7--7--|-2---5--5--5--7--7--|-2---5--5--5--7--7--|-2---5--5--5--7--7--|
G|-0------------------|-0------------------|-0------------------|-0------------------|

A|-5---3--5--5--|-5---3--5--5--|-5---3--5--5--|-5---3--5--5--|
E|-3---1--3--3--|-3---1--3--3--|-3---1--3--3--|-3---1--3--3--|
C|-----7--9--9--|-----7--9--9--|-----7--9--9--|-----7--9--9--|
G|-3------------|-3------------|-3------------|-3------------|

A|-2---5--5--5--7--7--|-2---5--5--5--7--7--|-2---5--5--5--7--7--|-2---3--3--3--5--5--|
E|-0---1--1--1--3--3--|-0---1--1--1--3--3--|-0---1--1--1--3--3--|-0---1--1--1--3--3--|
C|-2------------------|-2------------------|-2------------------|-2---7--7--7--9--9--|
G|-0---3--3--3--5--5--|-0---3--3--3--5--5--|-0---3--3--3--5--5--|-0---3--3-----------|
A|-0---3--3--3--5--5--|-0---3--3--3--5--5--|-0---3--3--3--5--5--|-0---3--3--3--5--5--|
E|-0---3--3--3--5--5--|-0---3--3--3--5--5--|-0---3--3--3--5--5--|-0---3--3--3--5--5--|
C|-2---5--5--5--7--7--|-2---5--5--5--7--7--|-2---5--5--5--7--7--|-2---5--5--5--7--7--|
G|-0------------------|-0------------------|-0------------------|-0------------------|

A|-5---3--5--5--|-5---3--5--5--|-5---3--5--5--|-5------------|
E|-3---1--3--3--|-3---1--3--3--|-3---1--3--3--|-3---------5--|
C|-----7--9--9--|-----7--9--9--|-----7--9--9--|-----------4--|
G|-3------------|-3------------|-3------------|-3---------7--|
P P P P P P P P
A|-6-2-----2-------|-2-----6-2-----2-------|-2-----6-2-----2-------|-2-----6-2-----2-------|
E|------------2-0--|------------------2-0--|------------------2-0--|------------------2-0--|
C|-----------------|-----------------------|-----------------------|-----------------------|
G|------0----------|----5-------0----------|----5-------0----------|----5-------0----------|
P P P P P P P P
A|-2-----6-2-----2-------|-2-----6-2-----2-------|-2-----6-2-----2-------|-2-----6-2-----2-------2-----|
E|------------------2-0--|------------------2-0--|------------------2-0--|------------------2-0--------|
C|-----------------------|-----------------------|-----------------------|-----------------------------|
G|----5-------0----------|----5-------0----------|----5-------0----------|----5-------0-------------0--|
P
A|-3---7---7--7--7---|------------------|
E|-1-----------------|-4---3---3--1----|
C|-7-----------------|-10---3---3-------|
G|-----5^--5--5--5---|------^-----6-5--|
P P P P
A|-6-2-----2------2-----|-6-2-----2------2-----|
E|------------2-0-------|------------2-0-------|
C|----------------------|----------------------|
G|------0------------0--|------0------------0--|
H H
A|-9---9---9---9---9----5---|-------5--7---|-5-7---5--5---5--5--7----|-5-7---5--5---5--5--7----|
E|-3--3--3--3--3---9---|--------------|-------------------------|-------------------------|
C|-9--9--9--9--9---4---|--------------|-------------------------|-------------------------|
G|-10--10--10--10--10---9---|-------3--5^--|-3-5---3--3---3--3--5^---|-3-5---3--3---3--3--5^---|
A|-0---3--3--3--5--5--|-0---3--3--3--5--5--|-0---3--3--3--5--5--|-0---3--3--3--5--5--|
E|-0---3--3--3--5--5--|-0---3--3--3--5--5--|-0---3--3--3--5--5--|-0---3--3--3--5--5--|
C|-2---5--5--5--7--7--|-2---5--5--5--7--7--|-2---5--5--5--7--7--|-2---5--5--5--7--7--|
G|-0------------------|-0------------------|-0------------------|-0------------------|
A|-0---3--3--3--5--5--|-0---3--3--3--5--5--|-0---3--3--3--5--5--|-0---3--3--3--5--5--|
E|-0---3--3--3--5--5--|-0---3--3--3--5--5--|-0---3--3--3--5--5--|-0---3--3--3--5--5--|
C|-2---5--5--5--7--7--|-2---5--5--5--7--7--|-2---5--5--5--7--7--|-2---5--5--5--7--7--|
G|-0------------------|-0------------------|-0------------------|-0------------------|
A|-0---3--3--3--5--5--|-0---3--3--3--5--5--|-0---3--3--3--5--5--|-0---3--3--3--5--5--|
E|-0---3--3--3--5--5--|-0---3--3--3--5--5--|-0---3--3--3--5--5--|-0---3--3--3--5--5--|
C|-2---5--5--5--7--7--|-2---5--5--5--7--7--|-2---5--5--5--7--7--|-2---5--5--5--7--7--|
G|-0------------------|-0------------------|-0------------------|-0------------------|

A|-5---3--5--5--|-5---3--5--5--|-5---3--5--5--|-5------------|
E|-3---1--3--3--|-3---1--3--3--|-3---1--3--3--|-3---------5--|
C|-----7--9--9--|-----7--9--9--|-----7--9--9--|-----------4--|
G|-3------------|-3------------|-3------------|-3---------7--|
P P P P P P P P
A|-6-2-----2-------|-2-----6-2-----2-------|-2-----6-2-----2-------|-2-----6-2-----2-------|
E|------------2-0--|------------------2-0--|------------------2-0--|------------------2-0--|
C|-----------------|-----------------------|-----------------------|-----------------------|
G|------0----------|----5-------0----------|----5-------0----------|----5-------0----------|
P P P P P P P P
A|-2-----6-2-----2-------|-2-----6-2-----2-------|-2-----6-2-----2-------|-2-----6-2-----2-------2-----|
E|------------------2-0--|------------------2-0--|------------------2-0--|------------------2-0--------|
C|-----------------------|-----------------------|-----------------------|-----------------------------|
G|----5-------0----------|----5-------0----------|----5-------0----------|----5-------0-------------0--|
P
A|-3---7---7--7--7---|------------------|
E|-1-----------------|-4---3---3--1----|
C|-7-----------------|-10---3---3-------|
G|-----5^--5--5--5---|------^-----6-5--|
P P P P
A|-6-2-----2------2-----|-6-2-----2------2-----|
E|------------2-0-------|------------2-0-------|
C|----------------------|----------------------|
G|------0------------0--|------0------------0--|
P
A|-3---7---7--7--7---|------------------|
E|-1-----------------|-4---3---3--1----|
C|-7-----------------|-10---3---3-------|
G|-----5^--5--5--5---|------^-----6-5--|
P P P P
A|-6-2-----2------2-----|-6-2-----2------2-----|
E|------------2-0-------|------------2-0-------|
C|----------------------|----------------------|
G|------0------------0--|------0------------0--|

A|-9---9---9---9---9----5---|-5------|
E|-3--3--3--3--3---9---|-9------|
C|-9--9--9--9--9---4---|-4------|
G|-10--10--10--10--10---9---|-9---5--|
P P P P
A|-6-2-----2------2-----|-6-2-----2------2-----|
E|------------2-0-------|------------2-0-------|
C|----------------------|----------------------|
G|------0------------5--|------0------------5--|
P
A|-6-2-----2----------|
E|------------0-------|
C|--------------------|
G|------0-------------|

 

Commentaires (0)
Aucun commentaire :(
Besoin d'aide, envie de partager une astuce, ou simplement de parler de cette chanson? Commencez la discussion!

Vous devez être connecté pour participer à la discussion
ou Inscription

 

A propos de cette chanson

Pas d'information sur cette chanson.