All Star Tab par Smash Mouth

Tablature Ukulélé sans accords.

Ajouter cette tab à votre SongBook
Tablature / ChordsFont size: A- A A+

Vous ne savez pas comment lire une tablature ou un accord ?
Ne manquez pas nos cours:

Comment lire une tablature pour ukulélé
Comment lire un accord

A|--5-2-2--0-------3-2-2-0-0-------5-2-2-0-0---------|
E|-----------------------------------------------0---|
C|-------------------------------------------------2-|
G|-0----------0-0------------0-0-------------0-0-----|

A|------5-2-2-0-0-----3-2-2-0-0------5-2-2-0-----0---|
E|-------------------------------------------------0-|
C|-2-2-----------------------------------------------|
G|----------------0-0-----------0-0----------0-0-----|

A|-------------------2----------------------------------------|
E|--3-3-3-3-3-3-3-3---3-7/10-7/12-7/10-7/12-7/10-8-7-5-5-3-5-3|
C|------------------------------------------------------------|
G|------------------------------------------------------------|

# Note: 7/3 is a pull off and 7/10 and 7/12 are hammer ons however you can just
# pluck at the hammer ons instead


A|------------------2------------2---------------------------|
E|--3-3-3-3-3-3-3-3---3-3-3-0------3--3/0-3-3--3/0-3-3-3-5/7-|
C|-----------------------------2-----------------------------|
G|-----------------------------------------------------------|



A|--2---------------------------2-5-3-2-0-0------------------|
E|----3--3/0-3-3--3/0-3-3-3-5/7-------------3--------3-3-5-3-|
C|-----------------------------------------------------------|
G|-----------------------------------------------------------|


A|-5-2---0---------------------------------------------------|
E|---------3--5/7--0-----------------------------------------|
C|-----------------------------------------------------------|
G|-----------------------------------------------------------|

 

Commentaires (1)
Vous devez être connecté pour participer à la discussion
ou Inscription

 

404artistN0tF0und avatar
beautiful.
14 Jan 2020
A propos de cette chanson

Pas d'information sur cette chanson.