She Hates Me Tab par Puddle Of Mudd

Tablature Ukulélé sans accords.

Ajouter cette tab à votre SongBook
Tablature / ChordsFont size: A- A A+

Vous ne savez pas comment lire une tablature ou un accord ?
Ne manquez pas nos cours:

Comment lire une tablature pour ukulélé
Comment lire un accord

A|----2----0--4--0----------2--6-|
E|----0-------0--------2-------2-|
C|-4-----4----------6--1--6------|
G|----1-------2--------3-------4-|

A|-----2---0-0-0-0-----4---2-2-2-2-|
E|-0-0-0-0---------2-2-2-2---------|
C|-------------4---------------6---|
G|---------------------------------|

A|-2-2-2-2-0-0-0-0-4-4-4-4-2-2-2-2-|
E|-0-0-0-0---------2-2-2-2---------|
C|---------4-4-4-4---------6-6-6-6-|
G|---------------------------------|

 

Commentaires (0)
Aucun commentaire :(
Besoin d'aide, envie de partager une astuce, ou simplement de parler de cette chanson? Commencez la discussion!

Vous devez être connecté pour participer à la discussion
ou Inscription

 

A propos de cette chanson

Pas d'information sur cette chanson.