Mr. Crowley Tab par Ozzy Osbourne

Tablature Ukulélé sans accords.

Ajouter cette tab à votre SongBook
Tablature / ChordsFont size: A- A A+

Vous ne savez pas comment lire une tablature ou un accord ?
Ne manquez pas nos cours:

Comment lire une tablature pour ukulélé
Comment lire un accord

|-----------------|----------0--------|---------------|---------------------|
|------0---1---3--|------0------------|-1-------------|---------------------|
|--2--------------|-------------------|---------------|---------0-----------|
|-----------------|-2------------2--0-|-----0---2---4-|-5---0------5---4----|
~
|-------------5-|-7---------|-------3-|--5--3--2--3-|-----------------------|
|---------------|---------0-|-5--6--1-|--3--1--0--1-|----------1--0---------|
|---------------|-----------|-4--5----|--2----------|-----------v(-)--------|
|-2---4---5-----|-----4-----|-5--7--2-|--0--2--1--2-|-2---------------------|

|-5---0-----|-5--------|-1--X-1~-1-1-3-1-0-0-|-1--X-1~-1/-|-5---0----|-5-----|
|--------1--|----18-\--|---------------------|------------|--------1-|----22\|
|-9---------|-9--------|-5--X-5--------------|-5--X-5-----|-9--------|-9-----|
|-7---------|-7--------|-3--X-3~-------------|-3--X-3~----|-7--------|-7-----|
~ ~ H ~
|-1--X-1--1-1---1-0-0-|-1--X-1--1-|---------------|-----------|--------------|
|-1----1--------------|-1----1--1-|-3--1--3--1--3-|------3--5-|-5--3--5------|
|----X--------0-------|----X------|-0--0--0-----0-|-2-4--2--2-|-2--2--2------|
|-3--X-3--------------|-3--X-3--3-|-5--3--5--3--5-|------5--7-|-7--5--7------|

|-5h7-10-12-10----------|-3--X--3-0-3-|-0-1-3--X-3-|-1--1--1-1p0-|--------------|
|-----------------------|-------------|------------|-------------|-17-\---------|
|-----------------------|-7--X--7---7-|-----7--X-7-|-5--5--5-----|--------------|
|-----5-h7-p5--7^(9)-5~-|-5--X--5---5-|-----5--X-5-|-3--3--3-----|--------------|
H P H P H P H P H P S
|-----------------| |-5-6-5--5-------------------|
|---------------5-| |------------------3--3-1-0--|
|-2-4-2-4-2-4-2-2-| |--------------------------2-|
|-----------------| |------5--5-3-5-3-2--2-------|
P P P P H
|-----------------------------------------------------------------------------|
|----------------5-----5--3-----3------------------------------3--------------|
|----------------------------5-----5-----5---------------5--5-----------------|
|-10--7--5--7--5-----5-----------------7----7--5--7--5--7---------------------|
P S P P P P P P P P S P P
|-----------------------------------------------------------------------------|
|-3-----3--5----------5-------------------------------------------------------|
|----5------------------------------------------------------------------------|
|------------5--5----5-5-7--10-9-7-12-10-9-13-12-10-15-13-12--17--17--15--14--|
H P H P P H P P P P
|--------------------------------------------------------------------------|
|--------------------------------------------------------------------------|
|--------------------------------------------------------------------------|
|-14-15-14-12-14-10-12-14-15-14-12-14-12-9-10-9-7-9-7-5-15-5-15-14-12-10-12|
~ ~ ~
|----------------------X------------|
|---------------------------^(22)---|
|----------------------X------------|
|-9--------12---9------X---17-------|
P H P H P P P P H P H P
|---------------------------------------------------------------------|
|---------------------------------------------------------------------|
|---------------------------------------------------------------------|
|-17--14--17--14--15--14--15--14--12--14-12--9--10--9--10--9--10--9---|
P P P P P P P
|-------------------------------------------------------------------|
|-------------5-------------5---------------5---------------5-------|
|-------------------------------------------------------------------|
|-10--7-5-7-5----10--7-5-7-5----10--7--7--7-5----10--7--7--7-5------|
P P P P P P P
|---------------------------------------------------------------|
|-------------5-------------5-------------5-------------5-------|
|---------------------------------------------------------------|
|-10--7-5-7-5----10--7-5-7-5----10--7-5-7-5----10--7-5-7-5------|
P P P P S S P H
|-------------------------------------------------7------|
|-------------5--6--5-3-5-3--------------------5---1-5---|
|----------------------------4-5--4-2-4-2---2------------|
|-10--7-5-7-5------------------------------5---5---------|
P P H ~ ~ ~ ~ ~ H P H P S
|---------------------------|-------------------------------|-----0---|
|-3-----------3-------------|----------------5--6--5--6--5--|---------|
|---5-4-2-4-5---5--4---2----|-1----2----4-------------------|---------|
|---------------------------|-------------------------------|-10------|
~ H P P H P
|--------------------------------------------|
|---------------6--5-----5-4-5-4-----4-------|
|---------------------------------5-----5----|
|-5---7----7-5--------4-------------------7--|
P P H P P
|:-5----5-------5-3-|-----8--7--7-|-------------------|---------------|
|--1--------1-0-----|-1---5--3----|-3--3------------6-|-5--3--1-----5-|
|--2----------------|-------------|--------2-4-2------|----------2----|
|--2--2---2---------|-3-----------|-5----5-------5----|---------------|
H P H ~
|-5---------------|------7---7-|-4--5--7----|-7--5--4-|-7--5--0-:|
|-1-1-------------|----1---1---|----------1-|---------|-------0--|
|---------2-------|------------|------------|---------|----------|
|-3---3-5---5-3-2-|-0--------0-|------------|---------|-------2--|
H P H S S S
|-7---8---7---8---8-------8-------------8-----7-----8--|
|------------------------------------------------------|
|-10--12--10--12--12--14--12--14--14----12----10----12-|
|-7--8--7--8--8--10--8--10--10----8----7----8----------|
S S S S S S S S
|------------------------------------------------------|
|------------6-----------------------------------------|
|------------------------------------------------------|
|-12----9----------9-----6----7-----9-----10----9------|
H P H P H ~~~
|------------------------------------------------------------------------------|
|--------------------------------------5--6--5--6--5--6------------------------|
|----------------------------------------------------4-5--4-5--4-5----2---2---2|
|7--9--7--9--7--9--9-----6-7--6-7--6-7------------------------------6---6---6--|
H H H ~~~~~ H P P P P
|----------------------------------------------7---7---7---------|
|-----4-5--------------^----------5-6-53-5-3-1---1---2---------6-|
|-4-5----------------------------------------------------3-2-----|
|---------6-7--9--7--9---------------------------------------5---|
P P P S
|------------------------------1---------------------7------------------|
|-3---------3-5-3-----------3-5-----0-1-3--------------1-3-5-6---6-5-3--|
|---5-4-2-5-------5-------5------0-2----------------2-------------------|
|-----------------------------------------2-3-5-3-5------------5--------|
P P S S
|-------7---7--------------7-----4-5-4-5-4-5-5-7-5-7-5-7---7|
|-5-3-1---1---3-5-3-----1--------------------------------1--|
|-----------------------------------------------------------|
|-----------------------------------------------------------|
S S S
|-----------------------------------------------------------|
|-5--3-5--3-5--6--5--6--5--6--5--6-----6-----6-----6--------|
|-----------------------------------------------------------|
|-----------------------------------5-----5-----5-----7-----|
H ~~~~ ~~~~
|--------------------------------------------------------------------------|
|--------------------------------------------------------------------------|
|--------------------------------------------------------------------------|
|-9-10-7---9-10-9-10-7---10-14-15-14-12-14-12-10--9--10--1214--12--10--9-17|
S S
|-------------------------------------------------------------------------------|
|-------------------------------------------------------------------------------|
|-------------------------------------------------------------------------------|
|15--14-17-15-14-17--15-12-17-15-11-16-13-12-10-15-11-10-13-10-9-12-9-8-7-11-8-6|
S H P S H
|----------------------7---7-------------------------------|
|-------5-6-5-3-5-3-1-----------6---6-5-6-5---------3------|
|-----------------------2---2---------------4-5-4-5--------|
|-10--7------------------------5---5-----------------------|

|-12--10--8--7---5--3--------3/5------5-3-5-8-5-3-5--------|
|----------------------5-3-1-------------------------------|
|----------------------------------------------------------|
|----------------------------------------------------------|
S H P P ~~~~
|---------------------------------------7------------------|
|-4-1-3-1----------------1--3-3-5-----1--------------------|
|---------2-0---2--0--2-------------2----2---2-------------|
|---------------------------------5--------5---------------|
H P
|---------------7---7--------------|
|-5-6-5-3-5-3-1---1-----------6-5--|
|---------------------2---2--------|
|-----------------------5---5------|

 

Commentaires (0)
Aucun commentaire :(
Besoin d'aide, envie de partager une astuce, ou simplement de parler de cette chanson? Commencez la discussion!

Vous devez être connecté pour participer à la discussion
ou Inscription

 

A propos de cette chanson

Pas d'information sur cette chanson.