Flying High Again Tab par Ozzy Osbourne

Tablature Ukulélé sans accords.

Ajouter cette tab à votre SongBook
Tablature / ChordsFont size: A- A A+

Vous ne savez pas comment lire une tablature ou un accord ?
Ne manquez pas nos cours:

Comment lire une tablature pour ukulélé
Comment lire un accord

H                          
|-0-0-0-0-0-0----|------0-(0)-0--5-|-(5)--2---5-5----|-----------5--|
|-0-0-2---0-0----|------0--0--2--3-|-(3)-------------|------3----3--|
|-------2--------|--------(-)----2-|-(2)----0-2-2----|------0-------|
|-2-2-2-0-2-2----|------2-(2)-2--0-|-(0)------2-2----|------5----0--|
H P H P P P
|-(5)--2---5-5----|----------3-2-3-2----------b----||
|--3--------------|----------------------0---------||
|-(-)----0-2-2----|----x-------------------2-0-1---||
|-(0)------2-2----|------x-----------2-0-----------||
H
|-0-0-0-------0----------|------0-(0)-0--5-|-(5)--2---5-5----|-------(-)---|
|-0-0-2-3-3-5-0-3-3-5----|------0--0--2--3-|--3--------------|-----3--3----|
|------------------------|--------(-)------|-(-)----0-2-2----|-----0-(0)--2|
|-2-2-2-------2----------|------2-(2)-2--0-|-(0)------2-2----|-----5-(5)--0|

|-0-0-0---0-----------------|----------0---0--5-|
|-0-0-2-3-0--3-3-5--3-5-----|----------0---2--3-|
|---------------------------|-------------------|
|-2-2-2---2-----------------|----------2---2--0-|
H s s
|-(5)--2---5-5----|--------------||
|--3--------------|----6-5-6-5-3-||
|-(-)----0-2-2----|----3-2-3-2---||
|-(0)------2-2----|------------5-||

|-0--0-0-0-------0-|-7-------0-7-----0-|-0----0----|-0----(0)--------|
|-0--2---0---3-4-0-|-0---3-4---0-------|-5----5----|-3-----3---------|
|------2---4-------|---4---------4-6---|-4----2----|------(-)-2-2-2--|
|-2--2-0-2---------|-2---------2-------|-----------|-5----(5)-0-0-0--|

|-0-0-0-----0-------0-|-7-------0-0-----0-|-0----0----|-0-------------||
|-0-0-2-3-4-0---3-4-0-|-0---3-4---0-------|------5----|-3-------3-----||
|-------------4-------|---4---------4-6---|-2----2----|-----------2---||
|-2-2-------2-------2-|-2---------2-------|-4---------|-5-------5-0---||

|-------------|-------------------|
|-------------|-------------------|
|-------------|-------------------|
|-------------|-------------------|

|-0-0-0---0---------------|------0-(0)-0--5-|
|-0-0-2-3-0-3-3-5--3-5----|------0--0--2--3-|
|-------------------------|--------(-)------|
|-2-2-2---2---------------|------2-(2)-2--0-|
H
|-(5)--2---5-5----|----------------------------------|
|--3--------------|----------------------------------|
|-(-)----0-2-2----|----------------------------------|
|-(0)------2-2----|------0-2-0-2-0-2-0-4-0-4-0-0tr2--|
H s s s
|-(5)--2---5-5----|-----------------||
|-(3)-------------|------6-5-6-5-3--||
|-(2)----0-2-2----|------3-2-3-2----||
|-(0)------2-2----|--------------5--||

|-0-0-0--------0------------|-------0-(0)-0--5-|
|-0-0-2-3-3-5--0---3-3-5----|-------0--0--2--3-|
|---------------------------|---------(-)----2-|
|-2-2-2--------2------------|-------2-(2)-2--0-|
H
|-(5)--2---5-5----|------------5-5-5---|
|-(3)-------------|------3-3-3-3-3-3---|
|-(2)----0-2-2----|------0-0-0---------|
|-(0)------2-2----|------5-5-5-0-0-0---|

|-----------------|--------------------|
|-----------------|--------------------|
|-----------------|--------------------|
|-----------------|--------------------|
S H
|-0-0-0-------0--------|------0---0--5-|-(5)--2---5-5----|------------5-5-5|
|-0-0-2-3-3-5-0--------|------0---2--3-|--3--------------|------3-3-3-3-3-3|
|----------------------|---------------|-(-)----0-2-2----|------0-0-0------|
|-2-2-2-------2--[2]---|------2---2--0-|-(0)------2-2----|------5-5-5-0-0-0|

|-0--0-0-0-------0-|-7-------0-7-----0-|-0----0----|-0----(0)--------|
|-0--2---0---3-4-0-|-0---3-4---0-------|-5----5----|-3-----3---------|
|------2---4-------|---4---------4-6---|-4----2----|------(-)-2-2-2--|
|-2--2-0-2---------|-2---------2-------|-----------|-5----(5)-0-0-0--|

|-0-0-0-----0-------0-|-7-------0-0-----0-|-0----0----|-0-------------||
|-0-0-2-3-4-0---3-4-0-|-0---3-4---0-------|------5----|-3-------3-----||
|-------------4-------|---4---------4-6---|-2----2----|-----------2---||
|-2-2-------2-------2-|-2---------2-------|-4---------|-5-------5-0---||

|-0-0-----0-0-10-0-12-|--12-----5--10--|-0-0---0-0-10-5-12-|--12-----5--10-9--|
|-----3b4-------------|----------------|-----3-------------|------------------|
|-4-4-----4-4---------|-(--)-----------|-4-4-----4---------|-(--)-------------|
|-2-2-----2-2-5----7--|-(7-)----0--5---|-2-2-----2-5--0-7--|-(7-)----0--5-s4--|

|-0-0-----0-0-10-0-12-|--12-----5--10-9-|-0-0-------0-0-10--0-|-(0)----||
|-----3b4-------------|-----------------|-----3b3.5-----------|--------||
|-4-4-------4----2----|-(--)------------|-4-4---------4-----9-|-(9)----||
|-2-2-------2-5----7--|-(7-)----0--5-s4-|-2-2---------2-5---7-|-(7)----||
P P P P
|------------------------------------------------------------------|
|--------------------------------------------------------------|
|--------------------------------------------------------------|
|-11---9--6--4-b5--11--9--6--4-b5--14--9--6--4-b5--14--9--6--4-b5--|

|--------------------------------------------------------------|
|--2---------------------------------------------4-----5-------|
|--------------------------------------------------------------|
|--2---------------------------------------------4-----6-------|
P s H
|-------------------------------------------------------|
|--------------------------5------------------5-----|
|---------------------------------------------------|
|-14---13--11--9--7--6--5--4------11--9--6--5--4-----4--|

|----------------------------------------------5----|
|--5------------4-----2-----2------------4----------|
|-(-)----------------------(-)-----------------2----|
|-(6)-----------4-----2----(2)-----------4-----2----|
P H s s H H
|--------------------------------------------------------|
|-----------------------3--5---3--5--------------------|
|----=---------6-----6---------------------------------|
|-7---6--7--9-----9------------------4--7--9--11--12-----|

|--5------------------------5------------5-----5-------|
|----------------------------------------0-----0-------|
|-(2)----------------------(2)-----2-----2-----2-------|
|-(2)----------------------(2)-----2-----2-----2-------|
H H P
|----------------------|------------------------------------------------------|
|---------------------|--------------------------------5-----------------|
|---------------------|--------------------------------------------------|
|-11-----9---9----9----|-14---11--4--14--6--4--9--6--11--9-----4--6--7--6--7--|
P
|--5-----5------------|--------------------------------------------------|
|-(0)-----------------|--2------------------------------------4-----5----|
|-(2)----2------------|--------------------------------------------------|
|-(2)----2--------2-0-|--2------------------------------------4-----6----|
H P H P H P H P P H P
|---------------------------------------------------|
|------------------------------------------5-----5--|
|---------------------------------------------------|
|-6---7--6--7--6--7--6--7--6--7--6--4---------6-----|

|-------------------------------------------5-------|
|--5------------------4-----2--------2---4----------|
|-(-)-------------------------------(-)-----2-------|
|-(6)-----------------4-----2-------(2)--4--2-------|
H P H P H P H P H P H P H P H P
|-------------------------------------------------------------------------------
|----=------5-----5-----------5-----5-----=------5-----5-----------5-----5--
|---------------------------------------------------------------------------
|-7---11--7-----6-----7--11--7-----6-----7---11--7-----6-----7--12--7-----7-----

|--5------------------------------------5------------------5--------5-------
|----------------------------------------------------------0--------0-------
|-(2)----------------------------------(2)--------2--------2--------2-------
|-(2)----------------------------------(2)--------2--------2--------2-------
H P H P H P H P S H P H P H P
|-----------------------------------------------------------------------|
|----=------5-----5-----------5-----5--------------------------|
|--------------------------------------------------------------|
|-7---11--7-----6-----7--12--7-----7------14--16--14--16--14--16--14----|
P P P H P P P H P P P H P P P H
|--------------------------------------------------------------------------------|
|-------------------------------------------------------=-----------==---|
|------------------------------------------------------------------------|
|-14--9--14--9--6-9--14--9--14--9--6-9--14--9--14--9--6-9--14---9--14--9--6---9--|

|--0-------------------------------------------------(0)-----------------|
|--0--------------------------------------------------0------------------|
|----------------------------------------------------(-)--------4---4----|
|--2-------------------------------------------------(2)-----------------|
P P P H P P P H P P P H P P P H
|----------------------------------------------------------------------------------|
|------------5-----------------5-----------------5-----------------5-------|
|--------------------------------------------------------------------------|
|10--5--10--5-----5--10--5--10--5-----5--10--5--10--5-----5--10---5-10--5-------5--|
|--3----------------------------------------------------(3)--------x----x--|
|--1----------------------------------------------------(1)--------x----x--|
|--5----------------------------------------------------(5)----------------|
|--------------------------------------------------------------------------|
P P P H P P P H P P P H P P P H
|--------------------------------------------------------------------------|
|---5-----5-----5-----5-----5-----5-----5-----5-----5------5----5-------5--|
|------------6-----------------6-----------------6-----------------6-------|
|7-----7-----------7-----7-----------7-----7-----------7--=--7--------==---|

|--5----------------------------------------------------(5)--------0----0--|
|------------------------------------------------------------------0----0--|
|--9----------------------------------------------------(9)----------------|
|--7----------------------------------------------------(7)----------------|
P P P H P P P H S
|------------------------------------------------------|
|--------------------------------------------|
|--------------------------------------------|
|-15--10--15--10--7--10--15--10--15--10--7--10--7------|

|--1-----------------------------------------|
|--1-----------------------------------------|
|--------------------------------------------|
|--3-----------------------------------------|
P P P H P P P H P P P H P P P H
|------------------------------------------------------------|
|-----------4-------------4-------------4------=-------4-==--|
|------------------------------------------------------------|
|-9--4-9--4---4-9--4-9--4---4-9--4-9--4---4-9---4-9--4-----4-|

|-------------------------------------------(-)------0---0---|
|--7-----------------------------------------7---------------|
|--4----------------------------------------(4)------2---2---|
|--9----------------------------------------(9)--------------|
P H P H P H P H P H P H P P P
|--------------------------------------------------------------------7------|
|----3----------------3----------------3----------------3----3--------|
|---------------------------------------------------------------------|
|-5----5--12--9--12--5----5--12--9--12--5----5--12--9--12--5----5-----------|

|-----------------------------------------------------0----------0----|
|--3-------------------------------------------------------------0----|
|--0------------------------------------------------------------------|
|--5-------------------------------------------------------------2----|
P P P H P P P H P P P H P H
|-------------------------------------------------------|
|-5----5--------5----5--------5----5--------5----5------|
|----4----4---4----4----4---4----4----4---4----4------4-|
|-----------6-------------6-------------6-----------6---|

|--0----------------------------------------------------|
|--0----------------------------------------------------|
|-------------------------------------------------------|
|--2----------------------------------------------------|
P P P H P P P H P S S
|-----------------------------------------------x------||
|-------------5----------------5-------5-----------||
|--------------------------------------------------||
|-10--5--10--5----5--10--5--10--5----5--5--------------||

|--3--------3-------3--------3---------3--3-3------||
|--1--------1-------1--------1---------1--1-1--0---||
|--5--------5-------5--------5---------5--5-5------||
|--------------------------------------------------||

|-0------0-0-0-5-0-|-(0)---------5---10---------|
|----3b4-----------|----------------------------|
|-4--------4-7---9-|-(9)------------------------|
|-2--------2-5-0-7-|-(7)---------0---5----------|

|------------------|---------7-----7-----------|
|------------------|-----------5-3-------------|
|------------------|-----2-4---------2-4--2----|
|------------------|------b-----------b-r(-)-5-|

|-0------0-0-0-5-0-|-(0)-------5---5---0--|
|----3b4-----------|----------------------|
|-4------4-4-7---9-|-(9)-------------x-4--|
|-2------2-2-5-0-7-|-(7)-------0---0-x-2--|

|------------------|----------------------|
|------------------|-----5-3--------------|
|------------------|---------4-3-2-0------|
|------------------|----------------------|

|-0-0-----0-0-0-0-0-|-(0)--------------5-----------10------------|
|-----3b4-----------|--------------------------------------------|
|-4-4-------4-7-2-9-|-(9)----------------------------------------|
|-2-2-------2-5-0-7-|-(7)--------------0-----------5-------------|

|-------------------|-------------------------------------------------|
|-------------------|-------b22r=(--)---------------------------|
|-------------------|-------------------------------------------|
|-------------------|-----17-------17---14--12--14--12--9--7--5-b5-.5-|

|--0--------0-0-0--0-|-(0)----||
|------3b4-----------|--------||
|--4----------4-7--9-|-(9)----||
|--2----------2-5--7-|-(7)----||

|-----------------------|--------||
|--------------------|--------||
|--------------------|--------||
|-14---12----14---------|--------||
H P P P P P P P P
|-(5)-5-2---5-5----|--------------------------2-0-----|
|-(3)-3------------|------------------2-0---------3-5-|
|-(2)-2---0-2-2----|----------------------2-0---------|
|-(0)-0-----2-2----|------4-2-0-4-2-0-----------------|

|-------------0-----------|-(0)---------------|
|-------------0-----------|--0----------------|
|-------------------------|-(-)---------------|
|-------------2-----------|-(2)---------------|
s s
|-(5)--2---5-5----|----------------||
|--3--------------|----6-5-6-5-3---||
|-(-)----0-2-2----|----3-2-3-2-----||
|-(0)------2-2----|------------5---||

|-----------------|----------------||
|-----------------|----------------||
|-----------------|----------------||
|-----------------|----------------||
H
|-(5)--2---5-5----|------------5-5-5---|
|--3--------------|------3-3-3-3-3-3---|
|-(-)----0-2-2----|------0-0-0---------|
|-(0)------2-2----|------5-5-5-0-0-0---|

|-0-0-0---0---------------|------0---0--5-|
|-0-0-2-3-0-3-3-5--3-5----|------0---2--3-|
|-------------------------|---------------|
|-2-2-2---2---------------|------2---2--0-|
H
|-(5)--2---5-5----|------------5-5-5---||
|--3--------------|------3-3-3-3-3-3---||
|-(-)----0-2-2----|------0-0-0---------||
|-(0)------2-2----|------5-5-5-0-0-0---||

|-0--0-0-0-------0-|-7-------0-7-----0-|-0----0----|-0----(0)--------|
|-0--2---0---3-4-0-|-0---3-4---0-------|-5----5----|-3-----3---------|
|------2---4-------|---4---------4-6---|-4----2----|------(-)-2-2-2--|
|-2--2-0-2---------|-2---------2-------|-----------|-5----(5)-0-0-0--|
s
|-0--0-----0-0-----|-0-------0-0-0---0-|-0----0----|-0-------------||
|-0--0-3-4-0---3-2-|-0---3-4---0-0-----|------5----|-3-------3-----||
|------------2-----|---4-----------4---|-2----2----|-----------2---||
|-2--2-----2---5-4-|-2---------2-2-----|-4---------|-5-------5-0---||
|-0-0-----0-0-10-0-0-|-(0)----5--10--|-0-0---0-0-10-5-12-|--12-----5--10-9--|
|-----3b4------------|---------------|-----3-------------|------------------|
|-4-4-----4-4------9-|-(9)-----------|-4-4---4-4---------|-(--)-------------|
|-2-2-----2-2-5----7-|-(7)----0--5---|-2-2-----2-5--0-7--|-(7-)----0--5-s4--|
s s
|-------------------|--------------|-----------------|---------------------|
|-------------------|--------------|-----------------|---------3--------3--|
|-------------------|--------------|-----------------|--------7--9--9--7---|
|-------------------|--------------|-----------------|--------7--9--9--7---|
s s
|-------------------|--------------------|
|-------------------|---------3--------3-|
|-------------------|--------7--9--9--7--|
|-------------------|--------7--9--9--7--|
s s
|-----------------|---------------------|
|-----------------|---------3--------3--|
|-----------------|--------7--9--9--7---|
|-----------------|--------7--9--9--7---|
s s
|--------------------||o--------------------|
|--------------------||----------3--------3-|
|-9------------------||---------7--9--9--7--|
|-9------------------||---------7--9--9--7--|
s s s
|--------------------|---------------------|
|--------3-----------|---------3--------3--|
|-9--9--7------------|--------7--9--9--7---|
|-9--9--7------------|--------7--9--9--7---|
s s s
|--------------------|--------------------|--------------------o||
|--------------------|---------3--------3-|--------3------------||
|-9------------------|--------7--9--9--7--|-9--9--7-------------||
|-9------------------|--------7--9--9--7--|-9--9--7-------------||

 

Commentaires (0)
Aucun commentaire :(
Besoin d'aide, envie de partager une astuce, ou simplement de parler de cette chanson? Commencez la discussion!

Vous devez être connecté pour participer à la discussion
ou Inscription

 

A propos de cette chanson

Pas d'information sur cette chanson.