Breaking The Law Tab par Judas Priest

7 Accords utilisés dans la chanson: A,C,G,F,E,B,D

Ajouter cette tab à votre SongBook
Tablature / ChordsFont size: A- A A+

Vous ne savez pas comment lire une tablature ou un accord ?
Ne manquez pas nos cours:

Comment lire une tablature pour ukulélé
Comment lire un accord

Intro/Main Riff
A--0--2--3--0-2--3--0-2--3--|--------0-------0----3--2--|
E---------------------------|--1--3-----1-3-----3-------|
D---------------------------|---------------------------|
G---------------------------|---------------------------|

Chords
Verse 1 :
A A C C G G A A
There i was completely wasting, out of work and down
A A C C G G A A
all inside it's so frustrating as i drift from town to town

Pre chorus
F F C C
feel as though nobody cares if i live or die
F F E E
so i might as well begin to put some action in my life

Chorus :

A A A A
Breaking the law, breaking the law
A A A A A A
breaking the law, breaking the law
A A A A
breaking the law, breaking the law
A A A A A A
breaking the law, breaking the law

Verse 2

A A C C G G A A
So much for the golden future, i can't even start
A A C C C C E E
i've had every promise broken, there's anger in my heart

Pre chorus :
F F C C
you don't know what it's like, you don't have a clue
F F E E
if you did you'd find yourselves doing the same thing too


Chorus :

A A A A
Breaking the law, breaking the law
A A A A A A
breaking the law, breaking the law
A A A A
breaking the law, breaking the law
A A A A A A
breaking the law, breaking the law

Bridge

B B E E E E B B B B E E E E B B

You don't know what it's like
D D F F C C D D F F G G (x2)

intro riff

A A F F G G
Breaking the law, breaking the law
A A F F G G
breaking the law, breaking the law
A A F F G G
breaking the law, breaking the law
A A F F G G A A
breaking the law, breaking the law


Chorus Riff
A--0-0-0-0-0-0-0-0--|--0-0-0-0-0-0-0-0------|
E-------------------|-----------------------|
C-------------------|-----------------------|
G-------------------|-----------------------|



A------0-0-0-0-0-0--|--0-0-0-0-0-0-0-----|
E--5----------------|----------------5---|
C---4---------------|-----------------4--|
G-------------------|--------------------|



A------0-0-0-0-0-0--|--0-0-0-0-0-0-0-0--|
E--5----------------|-------------------|
C---4---------------|-------------------|
G-------------------|-------------------|



A------0-0-0-0-0-0--|--0-0-0-0-0-0-0-----|
E--5----------------|----------------5---|
C---4---------------|-----------------4--|
G-------------------|--------------------|

 

Commentaires (1)
Vous devez être connecté pour participer à la discussion
ou Inscription

 

Squab34 avatar
flag for US(ISO2) (Spokane)
Finaly. Breaking the law done right
09 Oct 2011
A propos de cette chanson

Pas d'information sur cette chanson.