Master Of Puppets Tab par Metallica

Tablature Ukulélé sans accords.

8.6/10
ImprimerAjouter cette tab à votre SongBook

Tablature / Chords (Chanson entière)

Font size: A- A A+

Artiste: 
Album:  inconnu
Tonalité: inconnuTablature (sans accords)
p - pull off
\ - slide

Intro
A|------|---------|
E|-8----|-6--5--4-|
C|-7----|-5--4--3-|
G|------|---------|
| | | |

A|-----------------|---------|-----------------|-----------------|
E|-----8-----7-----|-6--5--4-|-----------------|-----------------|
C|-0-0---0-0---0-0-|-5--4--3-|-0-0-7-0-0-6-0-0-|-5p0-4p0-3p0-2p1-|x4
G|-----------------|---------|-----------------|-----------------|
|_| |_| |_| |_| | | | |_| |_| |_| |_| |_| |_| |_| |_|

A|-----------------|-----------------|-----------------|-----------------|
E|-----3-----4-----|-5-----4-----3-3-|-----3-----4-----|-----------------|
C|-0-1---0-1---0-1-|---0-1---0-1-----|-0-1---0-1---0-1-|-3\2-0-3\2-0-3\2-|x2
G|-----------------|-----------------|-----------------|-3\2-0-3\2-0-3\2-|
|_| |_| |_| |_| |_| |_| |_| |_| |_| |_| |_| |_| |_| |_| |_| |_|

A|-----------------|-----------------|-----------------|---------------|
E|-----3-----4-----|-5-----4-----3-3-|-----3-----4-----|-5-----4-----3-|
C|-0-1---0-1---0-1-|---0-1---0-1-----|-0-1---0-1---0-1-|---0-1---0-1-2-| \
G|-----------------|-----------------|-----------------|---------------| \
|_| |_| |_| |_| |_| |_| |_| |_| |_| |_| |_| |_| |_| |_| |_| | x2
/
A|-----------------|-----------------|-----------------|-----------------|/
E|-----3-----4-----|-5-----4-----3-3-|-----3-----4-----|-----------------|
C|-0-1---0-1---0-1-|---0-1---0-1-----|-0-1---0-1---0-1-|-3\2-0-3\2-0-3\2-|
G|-----------------|-----------------|-----------------|-3\2-0-3\2-0-3\2-|
|_| |_| |_| |_| |_| |_| |_| |_| |_| |_| |_| |_| |_| |_| |_| |_|

A|-----------------|-----|
E|-----------------|-----|
C|-3\2-0-3\2-0-3\2-|-0---|
G|-3\2-0-3\2-0-3\2-|-0---|
|_| |_| |_| |_| |

⇢ Cette tablature ne vous convient pas? Voir 4 autre(s) version(s)

Commentaires (0)

Aucun commentaire :(
Besoin d'aide, envie de partager une astuce, ou simplement de parler de cette chanson? Commencez la discussion!

Commenter
Partagez vos rythmiques, vos accords ou vos astuces pour jouer cette tablature!

Top Tabs et Accords de Metallica, ne manquez pas ces chansons!

A propos de cette chanson: Master Of Puppets

Pas d'information sur cette chanson.

As-tu repris Master Of Puppets sur ton Ukulélé ? Partage ta reprise!
Ajouter une reprise