Sweet Dreams (are Made Of This) Tab par Marilyn Manson

3 Accords utilisés dans la chanson: A#, A, Dm

Ajouter cette tab à votre SongBook
Tablature / ChordsFont size: A- A A+

Vous ne savez pas comment lire une tablature ou un accord ?
Ne manquez pas nos cours:

Comment lire une tablature pour ukulélé
Comment lire un accord

Manson style intro
--------------------------------
-------------------------------- }
----9---10--9-------5-7-----4-6- } -- x4
7-7---7---7---7-3-3-----2-2-----



gipsy style intro
-------------------------------------
------------------------------------- }
----9---10-10--9-------5-7-----4-5--- } -- x3
7-7---7------7---7-3-3-----2-2-------



----------------------
---------------------- A# A
----9---10-10--9------
7-7---7------7---7----

additional optional fill
(Dm Dm A# A# A A)

Dm Dm A# A# A A
Sweet dreams are made of this
Dm Dm A# A# A A
Who am I to disagree
Dm Dm A# A# A A
Travel the world and the seven seas
Dm Dm A# A# A A
Everybody looking for something
Dm Dm A# A# A A
Some of them want to use you
Dm Dm A# A# A A
Some of them want to get used by you
Dm Dm A# A# A A
Some of them want to abuse you
Dm Dm A# A# A A
Some of them want to be abused

A# A# A A Dm Dm
A# A# A A A# A#

--14/-------------------


----------------------
---------------------- A# A }
----9---10-10--9------ } -- x4
7-7---7------7---7----


Dm Dm A# A# A A
Sweet dreams are made of this
Who am I to disagree
Travel the world and the seven seas
Everybody is looking for something
Some of them want to use you
Some of them want to get used by you
Some of them want to abuse you
Some of them want to be abused
I want to used you and abused you
I want to know what's inside
Moving on hold your head
Moving on keep your head
Moving on hold your head
Moving on keep your head
Moving on hold your head
Moving on keep your head
Moving on
Sweet dreams are made of this
Who am I to disagree
Travel the world and the seven seas
Everybody looking for something
Some of them want to use you
Some of them want to get used by you
Some of them want to abuse you
Some of them want to be abused
I gotta use you and abuse you
I gotta know what's inside
I gotta use you and abuse you
I gotta know what's inside you

 

Commentaires (0)
Aucun commentaire :(
Besoin d'aide, envie de partager une astuce, ou simplement de parler de cette chanson? Commencez la discussion!

Vous devez être connecté pour participer à la discussion
ou Inscription

 

A propos de cette chanson

Pas d'information sur cette chanson.