Despacito (Intro) Tab par Luis Fonsi

Tablature Ukulélé sans accords.

Ajouter cette tab à votre SongBook
Tablature / ChordsFont size: A- A A+

Vous ne savez pas comment lire une tablature ou un accord ?
Ne manquez pas nos cours:

Comment lire une tablature pour ukulélé
Comment lire un accord

A|----2-4-5-4-2---2---------|
E|---2----------6-------------|
C|--2-------------------------|
G|-4--------------------------|

A|----2--4-5-7-9----9----9--|
E|---2-----------10---10-------|
C|--2-------------------------|
G|-4--------------------------|

A|-----5-----4---2-----------|
E|-----------------------------|
C|-4/6---2/4---2------------|
G|----------------------------|

 

Commentaires (0)
Aucun commentaire :(
Besoin d'aide, envie de partager une astuce, ou simplement de parler de cette chanson? Commencez la discussion!

Vous devez être connecté pour participer à la discussion
ou Inscription

 

A propos de cette chanson

Pas d'information sur cette chanson.