Despacito Tab par Luis Fonsi

Tablature Ukulélé sans accords.

Ajouter cette tab à votre SongBook
Tablature / ChordsFont size: A- A A+

Vous ne savez pas comment lire une tablature ou un accord ?
Ne manquez pas nos cours:

Comment lire une tablature pour ukulélé
Comment lire un accord

A|-----------------------------------------|
E|---------2-2222--------------------------|
C|------------------------6-6666-----------|
G|-7--6--4-------44444-2-4-------44444-67-2|




A|----------------------------------------|
E|---------------------------2------------|
C|----------------------------------------|
G|-2222-77777-99-6---7--6--4--------------|

 

Commentaires (0)
Aucun commentaire :(
Besoin d'aide, envie de partager une astuce, ou simplement de parler de cette chanson? Commencez la discussion!

Vous devez être connecté pour participer à la discussion
ou Inscription

 

A propos de cette chanson

Pas d'information sur cette chanson.