Fur Elisa (Riff) Tab par Ludwig Van Beethoven

Tablature Ukulélé sans accords.

Ajouter cette tab à votre SongBook
Tablature / ChordsFont size: A- A A+

Vous ne savez pas comment lire une tablature ou un accord ?
Ne manquez pas nos cours:

Comment lire une tablature pour ukulélé
Comment lire un accord

A |-7-6-7-6-7-2-5-3-0-----0-2-----2-3---|
E |---------------------0-----0-4-----0-|
C |-------------------0-----------------|
G |-------------------------------------|


A |-7-6-7-6-7-2-5-3-0-----0-2---3-2-0----|
E |---------------------0-----0----------|
C |-------------------0------------------|
G |--------------------------------------|


A |-2-3-5-7---8-7-5---7-5-3---5-3-2-|
E |-------------------------0-------|
C |-----------------5---------------|
G |---------0-----------------------|


A |-7-6-7-6-7-2-5-3-0-----0-2-----2-3---|
E |---------------------0-----0-4------0-|
C |-------------------0------------------|
G |--------------------------------------|


A |-7-6-7-6-7-2-5-3-0-----0-2---3-2-0-|
E |---------------------0-----0-----0-|
C |-------------------0-------------0-|
G |---------------------------------2-|

 

Commentaires (0)
Aucun commentaire :(
Besoin d'aide, envie de partager une astuce, ou simplement de parler de cette chanson? Commencez la discussion!

Vous devez être connecté pour participer à la discussion
ou Inscription

 

A propos de cette chanson

Pas d'information sur cette chanson.