Maria Elena Tab par Los Indios Tabajaras

Tablature Ukulélé sans accords.

Ajouter cette tab à votre SongBook
Tablature / ChordsFont size: A- A A+

Vous ne savez pas comment lire une tablature ou un accord ?
Ne manquez pas nos cours:

Comment lire une tablature pour ukulélé
Comment lire un accord

S           H  H     S                   H         
------------------------------||------------------------|
------2-----6-----6-----6--4--||---------------------2--|
------------------------------||*-----------------2-----|
---------4-----4-----4--------||*--4-----------6--------|

---------------------------|------------------|--------------------------|
------------6---6---5---4--|------------------|------------------------6-|
------------6---6---5---4--|------------------|--------------------------|
---------------------------|------------------|------6------5--6--5--4---|
S S S
-------------------|--------------------------|
-------------------|--2----6-------2--6-------|
-------------------|------------------------2-|
----------------6--|----------------------6---|
~ ~ S
-----------------------------------------|---------------------------------|
--2-------------------------4--5--4--4--|--------------------4-------2----|
----------------------------------------|---6-------------------6---------|
--------4--6-8--11--8--6--4--------------|------8--8--8--6--4--------------|
S
--------------------------|---------------------6-7---|
--------------6-----6-----|-------------------------2-|
--------------------------|---------------------------|
--8--------------6-----4--|-----------6-4-3-4-6-------|
~ S S S S
---------------------------|--7----------6----6-7---|----------------------|
--6-----------6--6--6---4--|----------------------4-|-------------6-----4--|
------------------------4--|------------------------|----------------------|
---------------------------|--6-------------6-------|--6-------------4-----|
H S ~ S
-------------6-7-6----6-7---|----------------------------|
--6-----------------------2-|--6------------6--6--6---4--|
----------------------------|-------------------------4--|
--------------------6-------|----------------------------|
S
--6-------------------------|-------------------------|
------------6-------6---6-4-|----------------------2--|
----------------------------|--------------------3----|
--4----4---------4----4-----|--4---------------6------|
S S S S
-----------------------------|--------------------|
------5---6--5---6--4--5-----|--3--4--------------|
------5---6--5---6--4--5-----|--3--4--------------|
-----------------------------|--------------------|
H H
------------------------------|-------------------|
---------------------------6--|-------------------|
------------------------------|----------------3--|
------6------5----6--5--4-----|-------------------|
~ S S S
------------------------------------|----------------------------|
---------------------4--3--6--4-----|---------------6------5--4--|
--3--3-------4-3-2-3----------------|------------8--7--8---6--5--|
---------------------------------4--|------------4-----4---------|

--------------------------|---------------------------|
--5-----------6-----------|------------------6--------|
--6-----------------------|---------------------------|
-----------------4--5--6--|------------4-6-4----4--6--|
S
-------------------------------|---------------------------------------|
------------------6------------|-------------------4----------4------|
-------------------------------|----------------------6----------6-3-|
------------4-6-4---4-6-4-6-8--|-------13--11--8--4--------8--4--------|
S
-------------------------|-----------6-7---7---6-7-------|
--------------2------4---|---------------2---------2-4---|
-----------3-------------|-------------------------------|
--4--------------4-------|-------5-6---------6---------6-|
S
----------------------------|-----------------------------------------|
--6---------4-2-1-2-4-6-----|---------------------4----------4------|
----------------------------|------------------------6----------6-3-|
------------------------4-6-|--8------13--11--8--4--------8--4--------|

---------------------------||-------------------------|
------------6-----6---6-4--||--4------------4-----6---|
--------------------------*||------------4------------|
--4----4-------4----4-----*||------------------6------|
S
----------------------------|-------------------|-------------------|
--------------6-------------|-------------------|-------------------|
----------6-----------------|-------------------|-------------------|
------------------8---6--4--|----------4--------|--4----------------|

 

Commentaires (1)
Vous devez être connecté pour participer à la discussion
ou Inscription

 

Bcbacpl1 avatar
flag for AU(ISO2) (Maleny)
Where are the chords?
13 Jun 2018
A propos de cette chanson

Pas d'information sur cette chanson.