Who Knows Who Cares (acoustic) Tab par Local Natives

Tablature Ukulélé sans accords.

Ajouter cette tab à votre SongBook
Tablature / ChordsFont size: A- A A+

Vous ne savez pas comment lire une tablature ou un accord ?
Ne manquez pas nos cours:

Comment lire une tablature pour ukulélé
Comment lire un accord

A|--1-1-1-1-1-1-1-1-5-5-5-5-5-5-5-5-6-6-6-6-5-5-5-5-6-6-6-6-5-5-5-5----------|
E|-1-1-1-1-1-1-1-1-5-5-5-5-5-5-5-5-8-8-8-8-6-6-6-6-8-8-8-8-4-4-4-4-----------|
D|---------------------------------------------------------------------------|
G|---------------------------------------------------------------------------|

A|--1-1-1-1-1-1-1-1----------------------------------------------------------|
E|-------------------1-1-1-1-1-1-1-1-6-6-6-6-6-6-6-6-6-6-6-6-1-1-1-1---------|
C|---2-2-2-2-2-2-2-22-2-2-2-2-2-2-2-3-3-3-3-2-2-2-2-3-3-3-3-3-3-3-3----------|
G|---------------------------------------------------------------------------|

A|---------------------5--5--5--------------------------------------------------|
E|--3----3------6-6-6--5-5-5--6-6-6------------------------------------------|
C|---5----5-----7-7-7--5-5-5--7-7-7------------------------------------------|
G|-----5----5---7-7-7--10-10-10--7-7-7------------------------------------------|

 

Commentaires (0)
Aucun commentaire :(
Besoin d'aide, envie de partager une astuce, ou simplement de parler de cette chanson? Commencez la discussion!

Vous devez être connecté pour participer à la discussion
ou Inscription

 

A propos de cette chanson

Pas d'information sur cette chanson.