Tagpuan (Intro) Tab par Kamikazee

Tablature Ukulélé sans accords.

ImprimerAjouter cette tab à votre SongBook
Tablature / ChordsFont size: A- A A+

Vous ne savez pas comment lire une tablature ou un accord ?
Ne manquez pas nos cours:

Comment lire une tablature pour ukulélé
Comment lire un accord

A---------------------------------------------------------------------|
E---------3-2---0-2---3-2---0-2---------------------------------------|
C-2-----2-----2-----2-----2-------------------------------------------|
G---4-2---------------------------------------------------------------|
A---------------------------------------------------------------------|
E------------2-3---0-2---0-2------------------------------------------|
C-2----2---2-----2-----2-----2----------------------------------------|
G--2-4--0-2-----------------------------------------------------------|

 

Commentaires (0)
Aucun commentaire :(
Besoin d'aide, envie de partager une astuce, ou simplement de parler de cette chanson? Commencez la discussion!

Vous devez être connecté pour participer à la discussion
ou Inscription

 

A propos de cette chanson

Pas d'information sur cette chanson.