Tagpuan Tab par Kamikazee

4 Accords utilisés dans la chanson: G, A, Bm, D

Ajouter cette tab à votre SongBook
Tablature / ChordsFont size: A- A A+

Vous ne savez pas comment lire une tablature ou un accord ?
Ne manquez pas nos cours:

Comment lire une tablature pour ukulélé
Comment lire un accord

INTRO: 

A|---2-0----------------------------------|
E|---------3-2---0-2---3-2---0-2----------|
C|-2-----2-----2-----2-----2--------------| 7x
G|----------------------------------------|

A|---0-2-----0----------------------------|
E|---------3-----2-3---0-2---0-2----------|
C|-2-----2-----2-----2-----2-----2--------|
G|----------------------------------------|

G G
Nagbibilang ng sandali
A A G G
Pintig ng puso ko'y bumibilis
A A
Alam kong nadarama mo rin

G G A A Bm Bm
Magkikita tayo muli
Bm Bm
Parang batang kinikilig
G G A A
Di mapakali at nasasabik
Bm Bm Bm Bm
Mahawakan kang muli

D D G G
Mundo'y ating iiwanan
Bm Bm
Maaari lang sana
A A
Dito na lang tayo
D D
Sa ating tagpuan
G G
Maaari lang sana
Bm Bm
Dito na lang tayo
A A
Sa ating tagpuan
G G
Tagpuan

G G A A
Ngayong gabi aking sinta
G G
Sayo ang puso ko at kaluluwa
A A
Pagkat ikaw at ako ay iisa

G G A A Bm Bm
Magkikita tayo muli
Bm Bm
Parang batang kinikilig
G G A A
Di mapakali at nasasabik
Bm Bm Bm Bm
Mahawakan kang muli

D D G G
Mundo'y ating iiwanan
Bm Bm
Maaari lang sana
A A
Dito na lang tayo
D D
Sa ating tagpuan
G G
Maaari lang sana
Bm Bm
Dito na lang tayo
A A
Sa ating tagpuan
Bm Bm G G D D A A Bm Bm-A A
Tagpuan

A|---2-0----------------------------------|
E|---------3-2---0-2---3-2---0-2----------|
C|-2-----2-----2-----2-----2--------------|
G|----------------------------------------|

G G A A
Mundo'y ating iiwanan
G G
Maaari lang sana
A A
Dito na lang tayo
G G
Sa ating tagpuan

G G A A Bm Bm
Magkikita tayo muli
Bm Bm
Parang batang kinikilig
G G A A
Di mapakali at nasasabik
Bm Bm Bm Bm
Mahawakan kang muli

D D G G
Mundo'y ating iiwanan
Bm Bm
Maaari lang sana
A A
Dito na lang tayo
D D
Sa ating tagpuan
G G
Maaari lang sana
Bm Bm
Dito na lang tayo
A A
Sa ating tagpuan

Bm Bm G G D D A A Bm Bm-A A

A|---2-0----------------------------------|
E|---------3-2---0-2---3-2---0-2----------|
C|-2-----2-----2-----2-----2-----2-2------|
G|----------------------------------------|

 

Commentaires (0)
Aucun commentaire :(
Besoin d'aide, envie de partager une astuce, ou simplement de parler de cette chanson? Commencez la discussion!

Vous devez être connecté pour participer à la discussion
ou Inscription

 

A propos de cette chanson

Pas d'information sur cette chanson.