All Of Me Tab par John Legend

Tablature Ukulélé sans accords.

Notez la chanson !
ImprimerAjouter cette tab à votre SongBook

Tablature / Chords (Chanson simplifiée)

Font size: A- A A+

Artiste: 
Année:  2013
Tonalité: inconnuTablature (sans accords)
0402 0033 0232 0222 


A|---------------------------------------------------------------------------------------------------------------------------|
E|---------------------------------------------------------------------------------------------------------------------------|
C|---------------------------------------------------------------------------------------------------------------------------|
G|---------------------------------------------------------------------------------------------------------------------------|

Verse 1:
A|---------0h2---2-----2-2-0-2-0--------------0h2-2-0--2-2-0-2-0-----------------0h2----2--------3-------2------3---2----------0----2-0------------------------|
E|-3-------3-----------3---------3--3(d)------3--------2-----------3-3----3-----3----------------3---------3----3-------3-----2----3----3-3-----------------|
C|---4---4-------------0------------2(d)----2----------2----------------4---4--4-------------(4)-0----0---------2------------2--------------4----------------|
G|-----0-----------0--------------0-------0-----------------------------------------------(0)----0--0--------0--0-0---0---0------0----------------------------|

A|---------0h2---2-----2-2-0-2-0--------------0h2-2-0--5---3---2-0------------------0h2----2--------3--------2------3---2----------0-----2-0-------------------------|
E|---------3-----------3---------3--3(d)------3--------2--------------3-3----3-----3----------------3----------3----3-------3-----2----3-----3-3------------------|
C|-------4-------------0------------2(d)----2----------2-------------------4---4--4-------------(4)-0----0----------2------------2-------------------------------|
G|-----0-----------0---------------0------0------------2--0--0---------------------------------(0)--0--0---------0--0-0---0---0------0----------------------------|


Bridge:
A|-3-strum1-7---5---3--0h2---2----------0------------3---------7----5---3--0h2---2---------5--------------------------------------------------------------------|
E|-3--------3----------3---------0------2---3---3----3-strum1--3-----------3---------0-----5---------------------------------------------------------------|
C|-0--------0----------2-------------2--2------------0---------0-----------2---------------7-----------------------------------------------------------|
G|-0--------0-0---0----0---0---0---0----0-0---0---0--0---------0-0----0----0---0---0---0---0-----------------------------------------------------------------------|



Chorus:
A|-5-----5-----7-------5-----2-0---0-------2---2------2--2-----0-0---0-----0---3--2------2----0-0---0-----0---2-2----5-----5------7------7-2----0----0---------2---------------|
E|-7-7-------7-7--7----7-7-----3-------0---2---------2---------3---------3-------------3------3-----------2---2------7-7-------7--7-------------3---------0----2--------------|
C|-7-------7---7----7--7--7----4-----------4--------4-------4--0------------------------------2---------2-2---2------7-------7----7----7------0-4--------------4----------------|
G|-0---0-------0-0-----0-------0-0---0---0-0-0--0---------0--------0---0-----0---0---0-----0------0---0-------0---0--0---0--------0--0-------0-----0----0----0-0----------------|

A|---2------2--2------0-0---0-----0----3---2------2----0-0---0-----0--|2--3-5s10----9----7-----5----5-------5-----5---|----------------------------------------|
E|---------2----------3---------3---------------3------3-----------2--|2-------0---------8-----7----5-----5------5----|--------------------------------|
C|--------4---------4-0--------------------------------2---------2-2--|2------11--0-9--0-0---0-0--0-7---7-------6-----|----------------------------------|
G|-0---0----------0-------0---0-----0----0----0-----0------0---0------|0---------0----0--0-0---0-0--0-0-------0-----0-|----------------------------------------|


Verse 2:
A|---------0h2---2-----2-2-0-2-0--------------0h2-2-0--5---3-0--------------------------------0h2----2--------3--------2------3---2----------0-----2-0-------------------------|
E|-3-------3-----------3---------3--3(d)------3--------2-------5-3---------------------3-----3----------------3----------3----3-------3-----2----3-----3-3------------------|
C|---4---4-------------0------------2(d)----2----------2-----------4---------------------4--4-------------(4)-0----0----------2------------2--------------4-----------------|
G|-----0-----------0---------------0------0------------2--0----------------------------------------------(0)--0--0---------0--0-0---0---0------0-----------------------------|


A|---5-2-----2----------5------2--------5--2--------0h2-0------2-0--------------0h2---2--------3-------2-------3---2----------0-------2-0-------------|
E|-3-3-------3---3------3----3-3------3------3----2----------2-----3-3---3-----3---------------3---------3-----3--------3----2-----3--------------|
C|---4-------0----------4------2----2-----------2----------------------4---4--4------------(4)-0----0----------2------------2----------------------|
G|--------0--------0--------0-----0------------------------0-----------------------------(0)---0--0---------0--0-0----0---0------0------------------|


Bridge:
A|-3-strum1-7---5---3--0h2---2----------0------------3---------7----5---3--0h2---2---------5--------------------------------------------------------------------|
E|-3--------3----------3---------0------2---3---3----3-strum1--3-----------3---------0-----5---------------------------------------------------------------|
C|-0--------0----------2-------------2--2------------0---------0-----------2---------------7-----------------------------------------------------------|
G|-0--------0-0---0----0---0---0---0----0-0---0---0--0---------0-0----0----0---0---0---0---0-----------------------------------------------------------------------|

Chorus:
A|-5-----5-----7-------5-----2-0---0-------2---2------2--2-----0-0---0-----0---3--2------2----0-0---0-----0---2-2----5-----5------7--------10--9--7--7-5---2---2------2-----------------|
E|-7-7-------7-7--7----7-7-----3-------0---2---------2---------3---------3-------------3------3-----------2---2------7-7-------7--7--------7---7--7--0-0---0---------0-----------------|
C|-7-------7---7----7--7--7----4-----------4--------4-------4--0------------------------------2---------2-2---2------7-------7----7----7---7---7--7--0-0---4--------4------4------------|
G|-0---0-------0-0-----0-------0-0---0---0-0-0--0---------0--------0---0-----0---0---0-----0------0---0-------0---0--0---0--------0--0-----0---0--0--0-0---0-0----0------0-------------|

A|-0-0---0-----0----3---2------2----0-0---0-----0--|2--3-5s10----9----7-----5----5-------5-----5---|----------------------------------------|
E|-3---------3---------------3------3-----------2--|2-------0---------8-----7----5-----5------5----|--------------------------------|
C|-0--------------------------------2---------2-2--|2------11--0-9--0-0---0-0--0-7---7-------6-----|----------------------------------|
G|-----0---0-----0----0----0-----0------0---0------|0---------0----0--0-0---0-0--0-0-------0-----0-|----------------------------------------|

⇢ Cette tablature ne vous convient pas? Voir 10 autre(s) version(s)

Tab par , 24 avril 2016

Commentaires (1)

Commenter
Partagez vos rythmiques, vos accords ou vos astuces pour jouer cette tablature!
Filtrer par:
clara11111111 avatar
wtf
23 Nov 2020
Commentaire

Top Tabs et Accords de John Legend, ne manquez pas ces chansons!

A propos de cette chanson: All Of Me

Pas d'information sur cette chanson.

As-tu repris All Of Me sur ton Ukulélé ? Partage ta reprise!
Ajouter une reprise