Kiwi Tab par Harry Styles

5 Accords utilisés dans la chanson: D, E, G, A, Em

Notez la chanson !
ImprimerAjouter cette tab à votre SongBook

Tablature / Chords (Chanson entière)

Font size: A- A A+

Artiste: 
Album: 
Année:  2017
Difficulté: 
4.9
(intermédiaire)
Tonalité: D, BmAccords et Tablature
Verse 1
D D E E
She worked her way through a cheap pack of cigarettes
D D E E G G
Hard liquor mixed with a bit of intellect
D D E E
And all the boys, they were saying they were into it
G G A A
Such a pretty face, on a pretty neck


Chorus
E E D D E E
She's driving me crazy, but I'm into it, but I'm into it

I'm kinda into it
G G D D E E G G
It's getting crazy, I think I'm losing it, I think I'm losing it
A A D D E E G G D D E E
I think she said "I'm having your ba-by, it's none of your business"
G G D D E E G G A A
"I'm having your ba-by, it's none of your business"
D D E E G G D D E E
"I'm having your ba-by, it's none of your business"
G G D D E E G G A A
"I'm having your ba-by, it's none of your, it's none of your"


Verse 2
E E
It's New York, baby, always jacked up
D D E E G G
Holland Tunnel for a nose, it's always backed up
D D E E
When she's alone, she goes home to a cactus
G G A A
In a black dress, she's such an actress


Chorus
E E D D E E
She's driving me crazy, but I'm into it, but I'm into it

I'm kinda into it
G G D D E E G G
It's getting crazy, I think I'm losing it, I think I'm losing it
A A D D E E G G D D E E
I think she said "I'm having your ba-by, it's none of your business"
G G D D E E G G A A
"I'm having your ba-by, it's none of your business" (it's none of your, it's none of your)
D D E E G G D D E E
"I'm having your ba-by, it's none of your business"
G G D D E E G G A A
"I'm having your ba-by, it's none of your, it's none of your"


Bridge

e|----------------|------------------------|------------2---|----2---2---2-2-2-2-2-2-|
B|----------------|------------------------|------------3---|----3---3---3-3-3-3-3-3-|
G|----------------|------------------------|------------2---|----2---2---2-2-2-2-2-2-|
D|----------------|-----/2-----0-----------|------------0---|----0---0---0-0-0-0-0-0-|
A|0---------------|--------------2p0-------|0---------------|------------------------|
E|------3b----0---|------------------3b--0-|------3b--------|------------------------|

e|----------------|------------------------|3---3---3---3---|5---5-5-5-5-5---|
B|----------------|------------------------|3---3---3---3---|5---5-5-5-5-5---|
G|----------------|------------------------|4---4---4---4---|6---6-6-6-6-6---|
D|----------------|-----/2-----0-----------|5---5---5---5---|7---7-7-7-7-7---|
A|0---------------|--------------2p0-------|5---5---5---5---|7---7-7-7-7-7---|
E|------3b----0---|------------------3b--0-|3---3---3---3---|5---5-5-5-5-5---|

e|----------------|----------------|----------------|----------------|
B|----------------|----------------|----------------|------------9~--|
G|----------------|----------------|----------------|--------7/9-9~--|
D|----2-----------|----------------|----2-----------|--------7/9-9~--|
A|------x-----x-x-|----------------|------x-----x-x-|--------5/7-----|
E|0-----------x-x-|5---3p0-5---3p0-|0-----------x-x-|5---3p0---------|

e|----------------|----------------|----------------|(0)-------------|
B|----------------|----------------|----------------|(0)-------------|
G|----------------|----------------|----------------|(0)-------------| Let string feedback
D|----2-----------|----------------|----2-----------|(0)-------------|
A|------x-----x-x-|----------------|------x-----x-x-|----------------|
E|0-----------x-x-|5---3p0-5---3p0-|0-----------x-x-|----------------|

Em Em
She sits beside me like a silhouette
Em Em
Hard candy dripping on me 'til my feet are wet
Em Em
And now she's all over me, it's like I paid for it
Em Em
It's like I paid for it, I'm gonna pay for this

Solo
D D E E D D E E
e|------------------------|------------------------|------------------------|------------------------|
B|10b12brb~~~~~~~~~~~~~~~~|~~~~~~~~~~~~~~~~~~~~~~~~|pb12r~~~~~~~~~~~~~~~~~~~|------------10-p8-10-p8-|
G|------------------------|------------------------|------------------------|------------------------|
D|------------------------|------------------------|------------------------|------------------------|
A|------------------------|------------------------|------------------------|------------------------|
E|------------------------|------------------------|------------------------|------------------------|
D D E E G G A A
e|------------------------|------------------------|------------------------|------------------------|
B|10b12brb~~~~~~~~~~~~~~~~|~~~~~~~~~~~~~~~~~~~~~~~~|pb12r~~~~~~~~~~~~~~~~~~~|------------10-p8-10-p8-|
G|------------------------|------------------------|------------------------|------------------------|
D|------------------------|------------------------|------------------------|------------------------|
A|------------------------|------------------------|------------------------|------------------------|
E|------------------------|------------------------|------------------------|------------------------|

Chorus
G G A A
It's none of your, it's none of your
D D E E G G D D E E
"I'm having your ba-by, it's none of your business"
G G D D E E G G A A
"I'm having your ba-by, it's none of your business" (it's none of your, it's none of your)
E E
"I'm having your ba-by, it's none of your business"
D D E E G G A A
"I'm having your ba-by, it's none of your business" (it's none of your, it's none of your)

A A G G
A A G G
A A G G
A A G G
A A G G E E
A A G G A A G G
A A G G A A G G
A A G G E E

Tab par , 31 janv. 2021

Commentaires (0)

Aucun commentaire :(
Besoin d'aide, envie de partager une astuce, ou simplement de parler de cette chanson? Commencez la discussion!

Commenter
Partagez vos rythmiques, vos accords ou vos astuces pour jouer cette tablature!

Top Tabs et Accords de Harry Styles, ne manquez pas ces chansons!

A propos de cette chanson: Kiwi

Pas d'information sur cette chanson.

As-tu repris Kiwi sur ton Ukulélé ? Partage ta reprise!
Ajouter une reprise