21 Guns Tab par Green Day

6 Accords utilisés dans la chanson :

Ajouter cette tab à votre SongBook

Voir ces acccords pour le Baryton

Changer de tonalité:
Tablature / ChordsFont size: A- A A+

Vous ne savez pas comment lire une tablature ou un accord ?
Ne manquez pas nos cours:

Comment lire une tablature pour ukulélé
Comment lire un accord


Intro
A-------------0---------|
E--1---------------0----|2X
C--------2--------------|
G-----------------------|

Verse 1:
Dm chordDm A# chordA# F chordF C chordC
Do you know what's worth fighting for
Dm chordDm A# chordA# F chordF C chordC
When it's not worth dying for
Dm chordDm A# chordA# F chordF C chordC
Does it take your breath away
A# chordA# C chordC
And you feel yourself suffocating
Dm chordDm A# chordA# F chordF C chordC
Does the pain weigh out the pride
Dm chordDm A# chordA# F chordF C chordC
And you look for a place to hide
Dm chordDm A# chordA# F chordF C chordC
Did someone break your heart inside
A# chordA# (C5 chordC5)
You're in ruins

Chorus:
F chordF C chordC Dm chordDm
One 1 guns
C chordC A# chordA#
Lay down your arms
F chordF C chordC
Give up the fight
F chordF C chordC Dm chordDm
One 1 guns
C chordC A# chordA# F chordF C chordC
Throw up your arms into the sky
A# chordA# F chordF C chordC
You and I

Verse 2: (same chords as verse 1)

When you're at the end of the road
And you lost all sense of control
And your thoughts have taken their toll
When your mind breaks the spirit of your soul
Your faith walks on broken glass
And the hangover doesn't pass
Nothing's ever built to last
You're in ruins

Chorus:
F chordF C chordC Dm chordDm
One 1 guns
C chordC A# chordA#
Lay down your arms
F chordF C chordC
Give up the fight
F chordF C chordC Dm chordDm
One 1 guns
C chordC A# chordA# F chordF C chordC
Throw up your arms into the sky
A# chordA# F chordF C chordC
You and I

Bridge:
Dm chordDm A# chordA# F chordF C chordC
Did you try to live on your own
Dm chordDm A# chordA# F chordF A chordA
When you burned down the house and home
Dm chordDm A# chordA# F chordF A chordA
Did you stand too close to the fire
A# chordA# A# chordA# C chordC C chordC
Like a liar looking for forgiveness from a stone

[Solo]
F--C--Dm--C--A--F--C--C (x2)
A#--F--C--


A|-----------------------------------------|
E|--1--------1--------1-----1-----0--1-----|
C|-----0-----------------2-----2--------2--|
G|--------2-----0--2-----------------------|

A|-----------------------------------------|
E|-----1-----------------------------------|
C|---0---0--4-2-0--4-4-4-4-4-5-7-----------|
G|-----------------------------------------|

A|-----------------------------------------|
E|--1--------1--------1-----1-----0--1-----|
C|-----0-----------------2-----2--------2--|
G|--------2-----0--2-----------------------|

A|-------------------------------7---------|
E|-----1-----0-----------------------------|
C|--2-----2-----2-0--4-4-4-4-4-5-----------|
G|-----------------------------------------|

A|-------------------------------||--------0----|
E|-------------------------------||--1--------0-| x2
C|--0-2--4-2-0--4-4-4-4-4-4-4-4--||-----2-------|
G|-------------------------------||-------------|


Verse:
Dm chordDm A# chordA# F chordF C chordC
When it's time to live and let die
Dm chordDm A# chordA# F chordF C chordC
And you can't get another try
Dm chordDm A# chordA# F chordF C chordC
Something inside this heart has died
A# chordA#
You're in ruins


Chorus:
F chordF C chordC Dm chordDm
One 1 guns
C chordC A# chordA#
Lay down your arms
F chordF C chordC
Give up the fight
F chordF C chordC Dm chordDm
One 1 guns
C chordC A# chordA# F chordF C chordC
Throw up your arms into the sky
A# chordA# F chordF C chordC
You and I

 

Commentaires (0)
Aucun commentaire :(
Besoin d'aide, envie de partager une astuce, ou simplement de parler de cette chanson? Commencez la discussion!

Vous devez être connecté pour participer à la discussion
ou Inscription

 

A propos de cette chanson

Pas d'information sur cette chanson.