Aeriths Theme Tab par Final Fantasy 7

Tablature Ukulélé sans accords.

ImprimerAjouter cette tab à votre SongBook
Tablature / ChordsFont size: A- A A+

Vous ne savez pas comment lire une tablature ou un accord ?
Ne manquez pas nos cours:

Comment lire une tablature pour ukulélé
Comment lire un accord

A||--0-----5------------|--0------------------|--0-----5--4--2--5-----4--|
E||--2------------------|--0-----0------------|--2-----------0-----------|
C||--4------------------|---------------------|--4-----2-----------1-----|
G||-----2---------------|--5--2---------------|-----2--------------4-----|

--0-----------------|--0-----5-----0-----5-----|--0-----0-----2--------0--|
-----------0--------|--2-----2-----0-----------|--0--------0-----0--------|
--------------------|--4-----2-----------4-----|--------------------------|
--2-----------------|-----2-----2-----2-----2--|--5--2--5-----------2-----|
--1--------8--7--5--7--|--1-------------1----|--0----5--9-----5--9-----|
--3--------------------|--5------------------|--0----------------------|
--2--------------------|--2------------------|--6----------------------|
-----------------------|-----------0----3----|--2----------2--------2--|

---------------------|--2-----2-----L----------|--------------L----2--4--|
--2---------------0--|--2--4-------------2-----|--2-----2----------------|
--2------------2-----|-----------2--L----------|--8--1--------L----------|
--2------------------|----------------------0--|--2--------2--L----------|
H
--5-----2-------------|--5----------------------|--4--------4--------|
--5-----5-------------|----------------------2--|--4--------2--------|
-----2----------------|--4----------------------|-----------8--------|
--0-----0--------0----|--2--4-2--L--------2-----|--------------------|

--2-------------2-----|--5--------2--------|--5--------5----------|
--2--------4----------|--5-----------------|--5--------5-------2--|
--8-------------------|-----------2--------|----------------------|
-----------2-------2--|-----------0--------|--2--------0----2-----|

--4--------4--------|--2-------------2--4--|--5----------------|
--4--------2--------|--2--------4----------|--5----------------|
-----------8--------|--8-------------------|-------------------|
--------------------|-----------2----------|--4----------------|

--5----5----2---------|--5--------5--------|--5----5----2---------|
--5----5--------------|-----------2--------|--5----5--------------|
-----------------1----|--4--------4--------|-----------------1----|
-------0----6----4----|--2-----------------|-------0----6----4----|

--4------1---------0----|--2----2--------------|--0-----------------|
--4---------2---------|--2-------------------|--0-----------------|
---------1--10---------|------------1----2----|-----------1--------|
---------11------------|-------4---------4----|--2-----------------|

--2--------0----------|--5--------5------------|-----------2-----------|
----------------------|--5-----------0----2----|--0--------------2-----|
----------------------|--------------9----8----|--6--------------------|
----------------0--2--|--4--2--0---------------|--0-----------2-----0--|

--0----------------|--0----2--------------|-----------0----------|
--2----------------|----------------------|--0--------0------0-2-|
--4----------------|--4---------1----2----|----------------------|
-------------------|-------4---------4----|--2-------------------|

--2--------5-----------|-----------2--------|--5----------------||
-----2--0--4-----------|--5-----------------|--2----------------||
--------------L--------|--------------------|--4----------------||
--0--------------------|--0-----------------|--2----------------||

 

Commentaires (0)
Aucun commentaire :(
Besoin d'aide, envie de partager une astuce, ou simplement de parler de cette chanson? Commencez la discussion!

Vous devez être connecté pour participer à la discussion
ou Inscription

 

A propos de cette chanson

Pas d'information sur cette chanson.