Aeris (theme) (Riff) Tab par Final Fantasy 7

Tablature Ukulélé sans accords.

ImprimerAjouter cette tab à votre SongBook
Tablature / ChordsFont size: A- A A+

Vous ne savez pas comment lire une tablature ou un accord ?
Ne manquez pas nos cours:

Comment lire une tablature pour ukulélé
Comment lire un accord

A|------5-----3-------------5-4---5-2-4---------|
E|--2-------------0-----2-------0-----------0---|
C|----------------------------------------------|
G|----2---------2---------2-------------2-------|
H P
A|------5-----3--------------------------|
E|--2-------------0-------0-----1-0---0--|
C|----------------------2---2-------2---2|
G|----2---------2------------------------|
H P
A|----------------------2-4-5---2--------------|
E|----0-2-----2--------------------------------|
C|--2------------------------------------------|
G|--------------0-2-----------------0--2-4-2---|

A|--------------------------------------2-4-5|
E|----2-----------------------2--------------|
C|------1-----------2-----------1------------|
G|--2-----------4-2---------2----------------|

A|--5---4---2---------------5---4---2---4---------|
E|--------------------2---------------------2-2---|
C|------------------------------------------------|
G|--------------2---------------------------------|

A|--5---4---2----------------------------------------|
E|--------------------0-----0-2---2-0---------2---0--|
C|------------------------------------2---------2---2|
G|--------------2---------------0-----------0--------|

A|--5---4---2-------------------------------------2|
E|--------------------0-----0-2---2-0--------------|
C|------------------------------------2------------|
G|--------------2---------------0-----------0------|

 

Commentaires (0)
Aucun commentaire :(
Besoin d'aide, envie de partager une astuce, ou simplement de parler de cette chanson? Commencez la discussion!

Vous devez être connecté pour participer à la discussion
ou Inscription

 

A propos de cette chanson

Pas d'information sur cette chanson.