Tais-toi Mon Coeur Tab par Dionysos

8 Accords utilisés dans la chanson :

Ajouter cette tab à votre SongBook

Voir ces acccords pour le Baryton

Changer de tonalité:
Tablature / ChordsFont size: A- A A+

Vous ne savez pas comment lire une tablature ou un accord ?
Ne manquez pas nos cours:

Comment lire une tablature pour ukulélé
Comment lire un accord


Intro v(CC-2) v(GG-1) v(DmDm-2)
A|0-------5-7-5-0-|2-------5---5---|
E|0-------0-0-0-0-|3-------0---2---|
C|4-------0-0-0-0-|2-------0---2---| x2
G|5-------0-0-0-0-|0-------0---2---|
^(AmAm-5) ^(Cadd9Cadd9-2)
Verse
A|0---------------|5-------2-------|0---------------|5-------2-------|5-------2-------|
E|0---------------|0-------3-------|0---------------|0-------3-------|0-------3-------|
C|4---------------|0-------2-------|4---------------|0-------2-------|0-------2-------|
G|5---------------|0-------0-------|5---------------|0-------0-------|0-------0-------|

A|0---------------|5-------2-------|0---------------|5-------2-------|5-------5-------|
E|0---------------|0-------3-------|0---------------|0-------3-------|0-------2-------|
C|4---------------|0-------2-------|4---------------|0-------2-------|0-------2-------|
G|5---------------|0-------0-------|5---------------|0-------0-------|0-------4-------|
^(BmBm-2)
Refrain v(Dadd9Dadd9-1)
A|0-------0---0---|
E|0-------0---5---|
C|4-------6---0---| x4
G|5-------7---0---|
^(Am7Am7-5)
Bridge v(EmEm-1)
A|3-------2-------|5-------|
E|0-------3-------|0-------|
C|0-------4-------|0-------|
G|0-------0-------|0-------|
^(CC-1)
Intro x2

Verse

Refrain x4

Bridge

Middle xxxxx x [E7E7-1] v [AmAm-1]
A|0---------------|2---------------|0---------------|2---------------|
E|1---------------|0---------------|0---------------|0---------------|
C|2---------------|2---------------|0---------------|2---------------|
G|2---------------|1---------------|2---------------|1---------------|
^(DmDm-1)
A|0---------------|2---------------|0---------------|2-------2-------|
E|1---------------|0---------------|0---------------|----0---0-------|
C|2---------------|2---------------|0---------------|--2-----2-------|
G|2---------------|1---------------|2---------------|------1-1-------|

Intro x4

End
A|0---------------|
E|0---------------|
C|4---------------|
G|5---------------|

# Note This song contains lots of irregular chord shapes The numbers I
have put next to the chords show which version of the chord is used
For xxxxxxx [CC-1] is [CC] played xxxx xxxxxx xxxxxxxxx xxx [CC-] is
played in a slightly different way The higher the number the further
up the neck the chord is played If you find this explanation
confusing just follow the tablature and ignore the chords

 

Commentaires (0)
Aucun commentaire :(
Besoin d'aide, envie de partager une astuce, ou simplement de parler de cette chanson? Commencez la discussion!

Vous devez être connecté pour participer à la discussion
ou Inscription

 

A propos de cette chanson

Pas d'information sur cette chanson.