Rebel Rebel Tab par David Bowie

Tablature Ukulélé sans accords.

Ajouter cette tab à votre SongBook
Tablature / ChordsFont size: A- A A+

Vous ne savez pas comment lire une tablature ou un accord ?
Ne manquez pas nos cours:

Comment lire une tablature pour ukulélé
Comment lire un accord

# The song can basically be decomposed into five parts:

# Part One:

A||-------------------7-----7----||
E||------------------12----10----||
C||-----------2-2----------------||
G||------------------------------||

# Part Two:

||--7--7----7-------------|--------------7-----7----||
||--9--7----7-------9--7--|-------------12----10----||
||---------------4--------|--8--4--2----------------||
||------------------------|-------------------------||

# Part Three:

||--7--7----7-------------|-----------------0----|
||--9--7----7-------9--7--|-----------------0----|
||---------------4--------|--8--4--2--------1----|
||------------------------|-----------------2----|


|--------5----2------|----2----2----------|
|--------5----2------|----2----4----------|
|--------6----2------|----2----4----------|
|--------7----4------|----4----4----------|


|--2--2--2--2--2--2--2--2--|--2----------7-----7----||
|--4--4--4--4--4--4--4--4--|--4---------12----10----||
|--4--4--4--4--4--4--4--4--|--4----2----------------||
|--4--4--4--4--4--4--4--4--|--4---------------------||

# Part Four:

||--7--7----7-------------|--------5------------|
||--9--7----7-------9--7--|--------5------------|
||---------------4--------|--8--4--6------------|
||------------------------|--------7------------|


|--2------------------|------------7-----7----||
|--4------------------|-----------12----10----||
|--4------------------|------2----------------||
|--4------------0b----|-----------------------||
# ^
# (This "b" indicates a bend. To make this bend, you have to
# press down on the fourth string above the nut, close to the
# tuning head.)

# Part Five:

||--7--7----7-------------|---------------------||
||--9--7----7-------9--7--|---------------------||
||---------------4--------|--8--4--2------------||
||------------------------|---------------------||

# The song goes as follows:

# Play:
# part one,
# part two 15 times,
# part three,
# part two 3 times,
# part four,
# part two 11 times,
# part three,
# part two 3 times,
# part four,
# part two 6 times,
# part four,
# part two 22 times,
# and, finally, part five.

 

Commentaires (0)
Aucun commentaire :(
Besoin d'aide, envie de partager une astuce, ou simplement de parler de cette chanson? Commencez la discussion!

Vous devez être connecté pour participer à la discussion
ou Inscription

 

A propos de cette chanson

Pas d'information sur cette chanson.