The Mind's Eye Tab par Dark Tranquillity

Tablature Ukulélé sans accords.

Ajouter cette tab à votre SongBook
Tablature / ChordsFont size: A- A A+

Vous ne savez pas comment lire une tablature ou un accord ?
Ne manquez pas nos cours:

Comment lire une tablature pour ukulélé
Comment lire un accord

A|4---4---7---7---6---7---4---4---4---4---7---7---6---6---4---4--|
E|--0---0---0---0---0---0---0---0---0---0---0---0---0---0---0---0|
C|-8---8---8---8---8---8---8---8---9---9---9---9---9---9---8---8-|
G|---------------------------------------------------------------|


A|11---11---12---14--12--11---9---7---7---4---4---6---6---4---6---4---4--|
E|---0----0----0------------0---0---0---0---0---0---0---0---0---0---0---0|
C|--8----8----8------------8---8---8---8---8---8---8---8---8---8---8---8-|
G|-----------------------------------------------------------------------|

# Repeat 6057 or so times

 

Commentaires (0)
Aucun commentaire :(
Besoin d'aide, envie de partager une astuce, ou simplement de parler de cette chanson? Commencez la discussion!

Vous devez être connecté pour participer à la discussion
ou Inscription

 

A propos de cette chanson

Pas d'information sur cette chanson.