Heartbreak Station Tab par Cinderella

8 Accords utilisés dans la chanson: G, D/F#, Em, D, C, Dsus4, Bm, A

Notez la chanson !
ImprimerAjouter cette tab à votre SongBook

Tablature / Chords (Chanson entière)

Font size: A- A A+

Artiste: 
Année:  2005
Difficulté: 
3.5
(intermédiaire)
Tonalité: D, GAccords et Tablature
A||---------------------0--2--|--------------------------|
E||---3-----------3-----------|--------------3--------3--|
C||*-----2-----2-----2--------|--0--2-----2-----2--4-----|
G||*--------0-----------------|--------0-----------------|
H
-----5-----5-----5-----5--|-----------2--------0--2-----||
--------5-----0-----5-----|-----------------------------||
--6-----------------------|--0--2--------2----------2---||
--------------------2-----|--------0--------0-----------||


G G D/F# D/F# *
Waiting at the station
Em Em D D
Tears filling up my eyes
C C D D
Sometimes the pain you hide
G G D D
Burns like a fire inside

G G D/F# D/F# *
Look out my window
Em Em D D
Sometimes it's hard to see
C C D D
The things you want in life
G G D D Dsus4 Dsus4 D D
Come and go so easily

(Chorus)

Em Em C C G G D D
She took the last train out of my heart ooo, ooo
Em Em
She took the last train
C C G G D D
And now I think I'll make a brand new start
Em Em * C C
She took the last train out of my heart

(Intro)

G G D/F# D/F# *
Watching the days go by
Em Em D D
Thinking 'bout the plans we made
C C D D
The days turn into years
G G D D
Funny how they fade away

G G D/F# D/F# *
Sometimes I think of those days
Em Em D D
Sometimes I just hide away
C C D D
Waiting on that 9:20 train
G G D D Dsus4 Dsus4 D D
Waiting on a memory
[ Tab from: http://www.guitaretab.com/c/cinderella/203671.html ]
Em Em C C G G D D
She took the last train out of my heart ooo, ooo
Em Em
She took the last train
C C G G D D
And now I think I'll make a brand new start
Em Em * C C D D Dsus4 Dsus4 D D
She took the last train out of my heart

(Bridge)

Bm Bm G G
My lady's on the fly and she's never coming back
D D A A
My love is like a steam train rolling down the tracks yea, yea

Slide Solo (Chords like the 1st Chorus)

Intro (modified a bit, you can hear what to do)

Em Em C C G G D D
She took the last train out of my heart ooo, ooo
Em Em C C
She took the last train
G G D D
And now I think I'll make a brand new start
Em Em C C D D Dsus4 Dsus4 D D
She took the last train out of my heart

Em Em
She took the last train
C C G G D D
She took the last train ooo, out of my heart
Em Em C C G G
She took the last train, She took the last train
D D
And now I think I'll make a new start
Em Em * C C
Last train out of my heart


A||---------------------0--2--|--------------------------|
E||---3-----------3-----------|--------------3--------3--|
C||*-----2-----2-----2--------|--0--2-----2-----2--4-----|
G||*--------0-----------------|--------0-----------------|
H
-----5-----5-----5-----5--|-----------2--------0--2-----||
--------5-----0-----5-----|-----------------------------||
--6-----------------------|--0--2--------2----------2---||
--------------------2-----|--------0--------0-----------||

Tab par , 24 nov. 2013

Commentaires (1)

Commenter
Partagez vos rythmiques, vos accords ou vos astuces pour jouer cette tablature!
Filtrer par:
UclickBoy avatar
She took my last car out of my life~
And now I'm paying back the car loan
02 Jun 2020
Commentaire

A propos de cette chanson: Heartbreak Station

Pas d'information sur cette chanson.

As-tu repris Heartbreak Station sur ton Ukulélé ? Partage ta reprise!
Ajouter une reprise