One Call Away Tab par Charlie Puth

Tablature Ukulélé sans accords.

ImprimerAjouter cette tab à votre SongBook
Tablature / ChordsFont size: A- A A+

Vous ne savez pas comment lire une tablature ou un accord ?
Ne manquez pas nos cours:

Comment lire une tablature pour ukulélé
Comment lire un accord

A|-7-5-3-0-(3)-3-5-5/7-7-----7-----|-8-7-5-3-8-7-5-|-7-3-3-0-----------------------|-7-5-3-3-----3-----5-3-3-|

E|-----------(0)-0-0-----0---0-----0-|----------0-0-0-|-0-0-0----3-8-10-12-12-10-8-|--------0---0-----0-0---0-|

C|-----------(0)-0-------0-0-----0---|----------0-0-0-|-0-0-0--------------------------|--------0-0-----0---0---0-|

G|-----------(0)-0-------0------------|----------0-0-0-|-0-0-0--------------------------|--------0-----------0---0-|


A|-7-7-5-5-3-5-7-----|-7-7-5-5-3-5-7-|-10-10-8-8-5-3-|-7-7-5-5-3-5-7------|

E|-----------------3-5-|------------------|------------------|-----------------3-5-|

C|----------------------|-----------------|-------------------|---------------------|

G|----------------------|-----------------|-------------------|---------------------|


A|----------3-5-5-|-3-5-7-7-7-5-|

E|-3-3-5-5--------|---------------|

C|-----------------|---------------|

G|-----------------|---------------|


A|-7-5-3-0-3-----3-----5-----5/7-7-----7------|-8-7-5-3-8-----8-----7-----7/5-5-----5------|-7-3-3-0----------------------|-7-5-3-3-----3-----5-3-3-|

E|-----------0---0---0---0---0-----0---0-----0-|-----------0---0-----0-0---0-----0---0-----0-|-0--------3-8-10-12-12-10-8-|--------0---0-----0-0---0-|

C|-----------0-0---0-----0-0-------0-0-----0---|-----------0-0-----0---0-0-------0-0-----0---|-0------------------------------|--------0-0-----0---0---0-|

G|-----------0------------0---------0------------|-----------0-----------0---------0------------|-0-------------------------------|--------0-----------0---0-|


A|-7-7-5-5-3-5-7------|-7-7-5-5-3-5-7-|-10-10-8-8-5-3-|-7-7-5-5-3-5-7-----|

E|-----------------3-5--|------------------|------------------|----------------3-5-|

C|-----------------------|------------------|------------------|---------------------|

G|-----------------------|------------------|------------------|---------------------|


A|------------3-5-5-|-3-10-10-10-7-5-|

E|-3-3-3-5-5--------|-------------------|

C|--------------------|-------------------|

G|--------------------|-------------------|


A|-7-5-3-0-3-----3-----5-----5/7-7-----7-----|-8-7-5-3-8-----8-----7-----7/5-5-----5------|-7-3-3-0-----------------------|-7-5-3-3-----3-----5-3-3--|

E|-----------0---0-----0-0---0-----0---0-----0-|----------0---0-----0-0---0-----0---0-----0-|-0---------3-8-10-12-12-10-8-|--------0---0-----0-0---0--|

C|-----------0-0-----0---0-0-------0-0-----0--|-----------0-0-----0---0-0-------0-0-----0---|-0-------------------------------|--------0-0-----0---0---0--|

G|-----------0-----------0----------0-----------|-----------0-----------0----------0------------|-0------------------------------|--------0------------0---0--|


A|-3-7-10-12-14-14-7-7-5-|-3-7-10-12-14-14-7-7-5-|-3-7-10-12-14-14-7-7-5-|-5-7---------3-3-----------|-3-10-10-10-7-5-|

E|----------------------------|----------------------------|---------------------------|-----3-3-3-5-----5-12-10-|--------------------|

C|----------------------------|----------------------------|---------------------------|----------------------------|--------------------|

G|----------------------------|----------------------------|---------------------------|----------------------------|--------------------|


A|-7-5-3-0-3-----3-----5-----5/7-7-----7------|-8-7-5-3-8-----8-----7-----7/5-5-----5------|-7-3-3-0-----------------------|-7-5-3--3-----3-----5-3-3-|-8-7-5-3-8-----8-----7-----7/5-5-----5-----|-7-3-3-0----------------------|-7-5-3-3-5-3-3--7--5--3--3-5-3-3--|

E|-----------0---0-----0-0---0-----0---0-----0-|-----------0---0-----0-0---0-----0---0-----0-|-0---------3-8-10-12-12-10-8-|---------0---0-----0-0---0-|----------0---0-----0-0---0-----0---0-----0-|-0-------3-8-10-12-12-10-8-| ------0-0-----------------0-0-0--0-|

C|-----------0-0-----0---0-0-------0-0-----0---| ----------0-0-----0---0-0-------0-0-----0---|-0-------------------------------|---------0-0-----0---0---0-|----------0-0-----0---0-0-------0-0-----0---|-0-----------------------------|--------0--------------------0-0-0--0-|

G|-----------0------------0---------0------------|----------0------------0---------0------------|-0-------------------------------|---------0------------0---0-|----------0------------0---------0------------|-0-----------------------------|--------0--------------------0---------|

 

Commentaires (0)
Aucun commentaire :(
Besoin d'aide, envie de partager une astuce, ou simplement de parler de cette chanson? Commencez la discussion!

Vous devez être connecté pour participer à la discussion
ou Inscription

 

A propos de cette chanson

Pas d'information sur cette chanson.