Anytime Tab par Brian Mcknight

Tablature Ukulélé sans accords.

Ajouter cette tab à votre SongBook
Tablature / ChordsFont size: A- A A+

Vous ne savez pas comment lire une tablature ou un accord ?
Ne manquez pas nos cours:

Comment lire une tablature pour ukulélé
Comment lire un accord

|----------|----------|-------------------|----------|
|----------|----------|------------------|-(--)----|
|----------|----------|------------------|---------|
|----------|----------|-----------5-6-13--|--13------|

|-----------------|-13--------16--------16--(16-)---------------------|
|-(--)-----------|-13-----4--13-----4--13---13------4-----------4---|
|----------------|-17--------20--------18--(18-)-------8-----5------|
|--13-------------|-13--5-----13--5-----13--(13-)-10-----6--6-------6-|

|----------------------------------------|
|-6--4--6--------4--6----6--(6)------|
|-15----------------------11---11-------|
|----------8--10--------6--------4----|

|--5--8---16--------16--(16-)-------------------|--------------------------------|
|--6---4-13-----4--13---13-----------------4---|-6--4--6--------4--6----6----|
|-55-----20--------18--(18-)----5-------5------|-15----------------------11----|
|--13-5---13--5-----13--(13-)-6-----6-6-------6-|----------8--10--------6------|

|-1-3---4-3---4-(4)-----4-------4-|-------------------------|
|-1-----1-----1--1----1-----1-----|---4-6-----4-6---6-------|
|-5-----8-----6-(6)-1-----1-------|-------3-5-------------5-|
|-1---1-1---1-1-(1)-----1-----1---|-3-------------6---------|

|-1-3---4-3---4-(4)-----4-------4-|----------------------------|
|-1-----1-----1--1--1---1---1-----|---4-6-----4-6---6---6------|
|-5-----8-----6-(6)-------1-------|-------3-5----------(-)---5-|
|-1---1-1---1-1-(1)---1-------1---|-3-------------6--------4---|

|-1-3---4-3---4-(4)-----4-------4-|-----------------------------|
|-1-----1-----1--1--1-------1-----|---4-6-----4-6---6-------0---|
|-5-----8-----6-(6)-------1-------|-------3-5-----------------5-|
|-1---1-1---1-1-(1)---1-1-----1---|-3-------------6---4--4------|

|-1-3---4-3---4-(4)-----4--4------4-|--------------------------|
|-1-----1-----1--1--1---------1-----|---4-6-----4-6---0--0-6---|
|-5-----8-----6-(6)-----------------|-------3-5--------------5-|
|-1---1-1---1-1-(1)---1-1-(1)---1---|-3-------------6----------|

|-1-3---4-3---4-(4)-----4-------4-|-------------------------|
|-1-----1-----1--1--1---1---1-----|---4-6-----4-6---6-------|
|-5-----8-----6-(6)-------1-------|-------3-5-------------5-|
|-1---1-1---1-1-(1)---1-1-----1---|-3-------------6----4----|

|-1-3---4-3---4-(4)-----4-------4-|-----------------------------|
|-1-----1-----1--1----1-----1-----|---4-6-----4-6---6-------0---|
|-5-----8-----6-(6)-1-----1-------|-------3-5-----------------5-|
|-1---1-1---1-1-(1)-----1-----1---|-3-------------6---4--4------|

|-1-3---4-3---4-(4)-----4-------4-|-----------------------------|
|-1---1-1-----1--1--1-------1-----|---4-6-----4-6---6---------4-|
|-5-----8-----6-(6)-------1-------|-------3-5---------------5---|
|-1---1-1---1-1-(1)---1-1-----1---|-3-------------6---4--4------|

|-1-3---4-3---4-(4)-----4-------4-|-------------------------------|
|-------1-----1--1--1---1---1-----|---4-6-----4-6---6-------0-----|
|-5-----8-----6-(6)-------1-------|-------3-5-------------------5-|
|-1---1-1---1-1-(1)---1-1---6-1---|-3-------------6---4--4--------|

|-1-3---4-3---4-(4)-------------4-|-------------------------------|
|-1-----1-----1--1----4-----1-----|---4-6-----4-6---6-------0-----|
|-5-----8-----6-(6)-1-5-5-1-------|-------3-5-------------------5-|
|-1---1-1---1-1-(1)-----6-----1---|-3-------------6---4--4--------|

|-1-3---4-3---4-(4)-----4-------4-|-------------------------|
|-1-----1-----1--1--1-------1-----|---4-6-----4-6---6-------|
|-5-----8-----6-(6)-------1-------|-------3-5-------------5-|
|-1---1-1---1-1-(1)---1-1-----1---|-3-------------6----4----|

|-1-3---4-3---4-(4)-------------4-|-------------------------------|
|-1-----1-----1--1----1-1---1---4-|---4-6-----4-6---6-------0---4-|
|-5-----8-----6-(6)-1-----1-------|-------3-5-------------------5-|
|-1---1-1---1-1-(1)-----6-----1---|-3-------------6---4--4--------|

|-1-3---4-3---4-(4)-----4-----4-4-|-------------------------------|
|-1-----1-----1--1----1-----1-----|---4-6-----4-6-6-6-------0-----|
|-5-----8-----6-(6)-1-----1-------|-------3-5-------------------5-|
|-1---1-1---1-1-(1)-----------1---|-3-------------6---4--4--------|

|-1-3---4-3---4-(4)-----4-------4-|-----------------------------|
|-1---1-1-----1--1----1-----1-----|---4-6-----4-6---6-------0---|
|-5-----8-----6-(6)-1-----1-------|-------3-5-----------------5-|
|-1---1-1---1-1-(1)-----------1---|-3-------------6---4--4------|

|-1-3---4-3---4-(4)-----4-4-----4-|--------------------------|
|-1---1-1-----1--1----1-----1-----|---4-6-----4-6---6--------|
|-5-----8-----6-(6)-1-----6-------|-------3-5--------------5-|
|-1---1-1---1-1-(1)-----------1---|-3-------------6----------|

|-1-3---4-3---4-(4)-----4-------4-|-------------------------------|
|-1---1-1-----1--1--1-------1-----|---4-6-----4-6---6-------0-----|
|-5-----8-----6-(6)-------1-------|-------3-5-------------------5-|
|-1---1-1---1-1-(1)---1-------1---|-3-------------6---4--4--------|

|-1-3---4-3---4-(4)-------------4-|-------------------------|
|-1-----1-----1--1----1-1---1-----|---4-6-----4-6---6-------|
|-5-----8-----6-(6)-1-----1-------|-------3-5-------------5-|
|-1---1-1---1-1-(1)-----6-----1---|-3-------------6----4----|

|-1-3---4-3---4-(4)-----4-------4-|-------------------------------|
|-1-----1-----1--1----1-----1-----|---4-6-----4-6---6-------0---4-|
|-5-----8-----6-(6)-1-----1-------|-------3-5-----------------5---|
|-1---1-1---1-1-(1)-----------1---|-3-------------6---4--4--------|

|-1-3---4-3---4-(4)-----4-------4-|-----------------------------|
|-1-----1-----1--1----1-----1-----|---4-6-----4-6---6-------0---|
|-5-----8-----6-(6)-1-----1-------|-------3-5-----------------5-|
|-1---1-1---1-1-(1)-----------1---|-3-------------6---4--4------|

|-1-3---4-3---4-(4)-----4-------4-|-------------------------------|
|-1-----1-----1--1--1-------1-----|---4-6-----4-6---6-------0-----|
|-5-----8-----6-(6)-------1-------|-------3-5-----------------5---|
|-1---1-1---1-1-(1)---1-------1-1-|-3-------------6---4--4--------|

|-1-3---4-3---4-(4)-----4-------4-|-----------------------------|
|-1-----1-----1--1--1-------1-----|---4-6-----4-6---6-------0---|
|-5-----8-----6-(6)-------1-------|-------3-5-----------------5-|
|-1---1-1---1-1-(1)---1-------1---|-3-------------6---4--4------|

|-1-3---4-3---4-(4)-----4-------4-|-------------------------|
|-1---1-1-----1--1----1-----1-----|---4-6-----4-6---6-------|
|-5-----8-----6-(6)-1-----1-----6-|-------3-5-------------5-|
|-1---1-1---1-1-(1)-----------1---|-3-------------6---------|

|-1-3---4-3---4-(4)-----4-------4-|-------------------------------|
|-1-----1-----1--1----1-----1-----|---4-6-----4-6---6-------0-----|
|-5-----8-----6-(6)-1-----1-------|-------3-5-------------------5-|
|-1---1-1---1-1-(1)-----------1---|-3-------------6---4--4--------|

|-1-----4-3---4-(4)-----4-------4-|-----------------------------|
|-1-6-4-1-----1--1----1-----1-----|---4-6-----4-6---6-------0---|
|-5-----8-----6-(6)-1-----1-------|-------3-5-----------------5-|
|-1-5---1---1-1-(1)-----------1---|-3-------------6---4--4------|

|-1-3---4-3---4-(4)-----4-------4-|----------------------------|
|-1-----1-----1--1----1-----1-----|---4-6-----4-6---6---6------|
|-5-----8-----6-(6)-1-----1-------|-------3-5----------(-)---5-|
|-1---1-1---1-1-(1)-----------1---|-3-------------6--------4---|

|-1-3---4-3-----------4-------4-|-----------------------------|
|-1-----1-----0-0-1-------1-----|---4-6-----4-6---6-------0---|
|-5-----8---------------1-------|-------3-5-----------------5-|
|-1---1-1---1-------1-1-----1---|-3-------------6---4--4------|

|-1-3---4-3---4-(4)-----4-------4-|-------------------------------|
|-1-----1-----1--1--1-------1-----|---4-6-----4-6---6-------0-----|
|-5-----8-----6-(6)-------1-------|-------3-5-------------------5-|
|-1---1-1---1-1-(1)---1-1-----1---|-3-------------6---4--4--------|

|-1-3---4-3---4-(4)-----4-------4-|-----------------------------|
|-1-----1-----1--1--1-------1-----|---4-6-----4-6---6-------0---|
|-5-----8-----6-(6)-------1-------|-------3-5-----------------5-|
|-1---1-1---1-1-(1)---1-1-----1---|-3-------------6---4--4------|

|-1-3---4-3---4-(4)-----4-------4-|-------------------------|
|-1-----1-----1--1----1-----1-----|---4-6-----4-6---6-------|
|-5-----8-----6-(6)-1-----1-------|-------3-5-------------5-|
|-1---1-1---1-1-(1)-----------1---|-3-------------6----4----|

|-1-3---4-3---4-(4)-----4-------4-|-------------------------|
|-1-----1-----1--1----1-----1-----|---4-6-----4-6---6-------|
|-5-----8-----6-(6)-1-----1-------|-------3-5-------------5-|
|-1---1-1---1-1-(1)-----------1---|-3-------------6----4----|

|-1-3---4-3---4-(4)-----4-------4-|-------------------------|
|-1-----1-----1--1--1-------1-----|---4-6-----4-6---6-------|
|-5-----8-----6-(6)-------1-------|-------3-5-------------5-|
|-1---1-1---1-1-(1)---1-------1---|-3-------------6----4----|

|-1-3---4-3---4-(4)-----4-------4-|----------------------------|
|-1-----1-----1--1--1---1---1-----|---4-6-----4-6---6---6------|
|-5-----8-----6-(6)-------1-------|-------3-5----------(-)---5-|
|-1---1-1---1-1-(1)---1-1-----1---|-3-------------6--------4---|

|-1-3---4-3---4-(4)-----4-------4-|------------------------------|-1---------*|
|-1-----1-----1--1--1-------1-----|---4-6-----4-6---6---6----4---|-----------*|
|-5-----8-----6-(6)-------1-------|-------3-5----------(-)-5-----|-5---------*|
|-1---1-1---1-1-(1)---1-1-----1---|-3-------------6------------6-|-3---------*|

 

Commentaires (0)
Aucun commentaire :(
Besoin d'aide, envie de partager une astuce, ou simplement de parler de cette chanson? Commencez la discussion!

Vous devez être connecté pour participer à la discussion
ou Inscription

 

A propos de cette chanson

Pas d'information sur cette chanson.