Boris Tab par BOY

3 Accords utilisés dans la chanson: Dm, F, C

ImprimerAjouter cette tab à votre SongBook
Tablature / ChordsFont size: A- A A+

Vous ne savez pas comment lire une tablature ou un accord ?
Ne manquez pas nos cours:

Comment lire une tablature pour ukulélé
Comment lire un accord

[Intro]
e|--------------|--------------|
B|--------------|--------------|
G|-----2-----2--|-----2-----2--|(2x)
D|--0-----0-----|--0-----0-----|
A|--------------|--------------|
E|--------------|--------------|

[Verse 1]
Dm Dm Dm Dm F F C C
e|--------------|--------------|--------------|--------------|
B|--------------|--------------|--------------|--------------|
G|-----2-----2--|-----2-----2--|-----2-----2--|-----2-----2--|
D|--0-----0-----|--0-----0-----|--3-----3-----|--2-----2-----|
A|--------------|--------------|--------------|--------------|
E|--------------|--------------|--------------|--------------|

You said:
Baby, come up to the office you sang at my party I owe you some money You owe me

Dm Dm Dm Dm F F C C
e|--------------|--------------|--------------|--------------|
B|--------------|--------------|--------------|--------------|
G|-----2-----2--|-----2-----2--|-----2-----2--|-----2-----2--|
D|--0-----0-----|--0-----0-----|--3-----3-----|--2-----2-----|
A|--------------|--------------|--------------|--------------|
E|--------------|--------------|--------------|--------------|
your lips I'm gonna give tips and I heard your boyfriend is out of town

Dm Dm Dm Dm F F C C
e|--------------|--------------|--------------|--------------|
B|--------------|--------------|--------------|--------------|
G|-----2-----2--|-----2-----2--|-----2-----2--|-----2-----2--|
D|--0-----0-----|--0-----0-----|--3-----3-----|--2-----2-----|
A|--------------|--------------|--------------|--------------|
E|--------------|--------------|--------------|--------------|
Baby aren't you hungry? I could feed you cookies, I could get my carkeys

Dm Dm Dm Dm F F C C
e|--------------|--------------|--------------|--------------|
B|--------------|--------------|--------------|--------------|
G|-----2-----2--|-----2-----2--|-----2-----2--|--------------|
D|--0-----0-----|--0-----0-----|--3-----3-----|--2-----------|
A|--------------|--------------|--------------|--------------|
E|--------------|--------------|--------------|--------------|
Oh what a cute dress, but right now it's useless I heard your boyfriend is out of town

[Chorus 1]
Dm Dm F F C C Dm Dm
e|----------------------------------------------------------|
B|----------------------------------------------------------|
G|-----2-----2-----2-----2-----2-----2-----2-----2----------|
D|--0-----0-----3-----2-----0-----0-----0-----0-------------|
A|----------------------------------------------------------|
E|----------------------------------------------------------|
I said you~ should get out of town too

F F C C Dm Dm
e|----------------------------------------------------------|
B|----------------------------------------------------------|
G|-----2-----2-----2-----2-----2-----2-----2-----2----------|
D|--3-----3-----2-----2-----0-----0-----0-----0-------------|
A|----------------------------------------------------------|
E|----------------------------------------------------------|
I said you~ should get out of town too

[Verse 2]
Dm Dm Dm Dm F F C C
e|--------------|--------------|----------------|--------------|
B|--------------|--------------|--------------1-|--------------|
G|-----2-----2--|-----2-----2--|-----2---0h2----|-----2-----2--| (x2)
D|--0-----0-----|--0-----0-----|--3-------------|--2-----2-----|
A|--------------|--------------|----------------|--------------|
E|--------------|--------------|----------------|--------------|

You said: Baby, I know you like me
You know that we want us, really, I'm serious
We could have good fun and we're only young once
And I heard your boyfriend is out of town
Baby where are you going?
Don't be such a diva, you can't just leave now
Come back, don't bore me, you can't just ignore me.
Isn't your boyfriend out of town? I said yes.

[Chorus 2]
(same as chorus 1)
And you~ should get out of town too
I said you~ should get out of town too
I said you~ should get out of town too
I said you, you~ should get out of town too

[Solo]
Dm Dm Dm Dm F F C C
e|---------------|------5-5------|---------|-------|
B|------5-5------|---------------|---------|-------|
G|----5----------|----5----------|--5/7-5--|-------|
D|--7------------|--7------------|---------|--3/5--|
A|---------------|---------------|---------|-------|
E|---------------|---------------|---------|-------|

Dm Dm Dm Dm F F C C
e|---------------|------5-5------|--------(7)-|-----------|
B|------5-5------|---------------|--6-5-------|--6-5------|
G|----5----------|----5----------|------5-----|------5-7--|
D|--7------------|--7------------|------------|-----------|
A|---------------|---------------|------------|-----------|
E|---------------|---------------|------------|-----------|

Dm Dm Dm Dm F F C C
e|--5-5-5-5-5-5--|--3--0-0-0-----|--5-5-5-5-5-5--|--3--0-0-0-----|
B|--6-6-6-6-6-6--|--5--1-1-1-----|--6-6-6-6-6-6--|--5--1-1-1-----|
G|---------------|---------------|---------------|---------------|
D|---------------|---------------|---------------|---------------|
A|---------------|---------------|---------------|---------------|
E|---------------|---------------|---------------|---------------|

Dm Dm Dm Dm F F C C
e|--5-5-5-5-5-5--|--3--0-0-0-----|---------------|---------------------------|
B|--6-6-6-6-6-6--|--5--1-1-1-----|---------------|---------------------------|
G|---------------|---------------|--7--7--7--7---|--7-5---5------------------|
D|---------------|---------------|---------------|------7---7-5-7-5-3-5-3-2--|
A|---------------|---------------|---------------|---------------------------|
E|---------------|---------------|---------------|---------------------------|

[Chorus 3]
(same as chorus 2)
I said you~ should get out of town too
I said you~ should get out of town, out of town, out of town
I said you, you, you, you should get out of town too~
I said you, you you should get out of town too

[Verse 3]
(same as verse 1)
I said: Baby, come up to the office
You sang at my party I owe you some money
You owe me your lips I'm gonna give tips
And I heard your boyfriend is out of town


************************************

| ~ Vibrato
| h Hammer-on
| / Slide up
| (n) Ghost note

************************************

 

Commentaires (1)
Vous devez être connecté pour participer à la discussion
ou Inscription

 

JohanneJung avatar
flag for SE(ISO2) (Umeå)
This is not a ukulele tab, but for guitar
17 Mar 2018
A propos de cette chanson

Pas d'information sur cette chanson.