Kabhi Kabhi Mere Dil Mein Tab par Bollywood

Tablature Ukulélé sans accords.

Notez la chanson !
ImprimerAjouter cette tab à votre SongBook

Tablature / Chords (Chanson entière)

Font size: A- A A+

Artiste: 
Année:  2016
Tonalité: inconnuTablature (sans accords)
Lata Mangeshkar

Intro:
A|---4-------------------------------------|
E|-7---7s9---7-4-2-4---2s4-2-------------------------|
C|---------------------------1-4--------------|
G|----------------------------------------|


"kabbi kabbi"
A|-----4-------------4----------------------|
E|-7-7---7-4-4---4-4---7-7-------------------------|
C|-------------6-----------6--8s6-4-------------|
G|----------------------------------------| x2


"Ke Jaise"
A|----------------------------------------|
E|-4-4-4---4-4----4-4-----------------------------|
C|-------66----66----66*-4-4-6-4-1--------------------|
G|----------------------------------------| x2

Tab par , 04 avril 2013

Commentaires (0)

Aucun commentaire :(
Besoin d'aide, envie de partager une astuce, ou simplement de parler de cette chanson? Commencez la discussion!

Commenter
Partagez vos rythmiques, vos accords ou vos astuces pour jouer cette tablature!

Top Tabs et Accords de Bollywood, ne manquez pas ces chansons!

A propos de cette chanson: Kabhi Kabhi Mere Dil Mein

Pas d'information sur cette chanson.

As-tu repris Kabhi Kabhi Mere Dil Mein sur ton Ukulélé ? Partage ta reprise!
Ajouter une reprise