Für Elise Tab par Beethoven, Ludwig Van

Tablature Ukulélé sans accords.

ImprimerAjouter cette tab à votre SongBook
Tablature / ChordsFont size: A- A A+

Vous ne savez pas comment lire une tablature ou un accord ?
Ne manquez pas nos cours:

Comment lire une tablature pour ukulélé
Comment lire un accord

E|---------7----|-----7--------|-7-------7----|-----5--------|
A|--------------|--------------|--------------|--------------|
C|--------------|--------------|--------------|--------------|
G|--------------|-8-------8----|-----8--------|-4-------5----|

E|-0-------0----|---------0----|-2-------2----|---------2----|
A|-----0--------|-----0--------|--------------|-0------------|
C|--------------|-0------------|--------------|--------------|
G|--------------|--------------|-----1--------|-----1--------|

E|-3-------3----|---------3----|-7-------7----|
A|--------------|-0------------|--------------|
C|--------------|--------------|--------------|
G|-----2--------|-----2--------|-----8--------|

E|-----3--------|-0-------0----|--------------|-0-------0----|
A|-0------------|-----0--------|-----0--------|-----0--------|
C|--------------|--------------|-0-------0----|--------------|
G|---------4----|--------------|--------------|--------------|

E|-2---3---5----|-7-------7----|-----8---7----|-5-------5----|
A|--------------|--------------|--------------|--------------|
C|--------------|-----0--------|--------------|-----2--------|
G|--------------|--------------|-0------------|--------------|

E|-----7---5----|-3-------3----|-----5---3----|-2-------2----|
A|--------------|--------------|-0------------|--------------|
C|--------------|--------------|--------------|--------------|
G|-0------------|-----2--------|--------------|-----1--------|

E|---------2----|-7-------7----|
A|-0------------|--------------|
C|--------------|--------------|
G|-----1--------|-----8--------|

E|-----3--------|-0-------0----|--------------|-0------------|
A|-0------------|-----0--------|-0-------0----|-0------------|
C|--------------|--------------|-----0--------|-0------------|
G|---------4----|--------------|--------------|-2------------|

 

Commentaires (0)
Aucun commentaire :(
Besoin d'aide, envie de partager une astuce, ou simplement de parler de cette chanson? Commencez la discussion!

Vous devez être connecté pour participer à la discussion
ou Inscription

 

A propos de cette chanson

Pas d'information sur cette chanson.