Fur Elise Tab par Beethoven, Ludwig Van

Tablature Ukulélé sans accords.

Ajouter cette tab à votre SongBook
Tablature / ChordsFont size: A- A A+

Vous ne savez pas comment lire une tablature ou un accord ?
Ne manquez pas nos cours:

Comment lire une tablature pour ukulélé
Comment lire un accord

A|76767--2-5-3-0--------------------------------|
E|------------------0-5-7--0-4-7-8--------------|
C|----------------0-----------------------------|
G|----------------------------------------------|



A|76767--2-5-3-0--------------------------------|
E|------------------0-5-7--0-8-7-5-7-8--10-12---|
C|----------------0-----------------------------|
G|----------------------------------------------|



A|8-7-5--7-5-3--5-3-0---76767--2-5-3-0-----------|
E|------------------2----------------0-----------|
C|------------------3----------------0-----------|
G|------------------4----------------1-----------|

 

Commentaires (0)
Aucun commentaire :(
Besoin d'aide, envie de partager une astuce, ou simplement de parler de cette chanson? Commencez la discussion!

Vous devez être connecté pour participer à la discussion
ou Inscription

 

A propos de cette chanson

Pas d'information sur cette chanson.